ISO-10303-21;
HEADER;
FILE_DESCRIPTION( ( 'STEP AP203' ), '1' );
FILE_NAME( ' ', '  ', ( '  ' ), ( '  ' ), 'PSStep 10.0', '  ', '  ' );
FILE_SCHEMA( ( 'CONFIG_CONTROL_DESIGN' ) );
ENDSEC;
DATA;
#1 = DESIGN_CONTEXT( '', #27, 'design' );
#2 = APPLICATION_PROTOCOL_DEFINITION( 'INTERNATIONAL STANDARD', 'config_control_design', 1994, #27 );
#3 = PRODUCT_CATEGORY_RELATIONSHIP( 'NONE', 'NONE', #28, #29 );
#4 = DATE_AND_TIME( #30, #31 );
#5 = DATE_TIME_ROLE( 'creation_date' );
#6 = DATE_TIME_ROLE( 'classification_date' );
#7 = PERSON_AND_ORGANIZATION_ROLE( 'creator' );
#8 = PERSON_AND_ORGANIZATION_ROLE( 'design_supplier' );
#9 = PERSON_AND_ORGANIZATION_ROLE( 'classification_officer' );
#10 = PERSON_AND_ORGANIZATION_ROLE( 'design_owner' );
#11 = APPROVAL_PERSON_ORGANIZATION( #32, #33, #34 );
#12 = APPROVAL_DATE_TIME( #4, #33 );
#13 = CC_DESIGN_APPROVAL( #33, ( #35, #36, #37 ) );
#14 = CC_DESIGN_DATE_AND_TIME_ASSIGNMENT( #4, #5, ( #37 ) );
#15 = CC_DESIGN_DATE_AND_TIME_ASSIGNMENT( #4, #6, ( #35 ) );
#16 = CC_DESIGN_PERSON_AND_ORGANIZATION_ASSIGNMENT( #32, #10, ( #38 ) );
#17 = CC_DESIGN_PERSON_AND_ORGANIZATION_ASSIGNMENT( #32, #7, ( #37 ) );
#18 = CC_DESIGN_PERSON_AND_ORGANIZATION_ASSIGNMENT( #32, #7, ( #36 ) );
#19 = CC_DESIGN_PERSON_AND_ORGANIZATION_ASSIGNMENT( #32, #8, ( #36 ) );
#20 = CC_DESIGN_SECURITY_CLASSIFICATION( #35, ( #36 ) );
#21 = CC_DESIGN_PERSON_AND_ORGANIZATION_ASSIGNMENT( #32, #9, ( #35 ) );
#22 = SHAPE_DEFINITION_REPRESENTATION( #39, #40 );
#23 =  ( GEOMETRIC_REPRESENTATION_CONTEXT( 3 )GLOBAL_UNCERTAINTY_ASSIGNED_CONTEXT( ( #43 ) )GLOBAL_UNIT_ASSIGNED_CONTEXT( ( #45, #46, #47 ) )REPRESENTATION_CONTEXT( 'NONE', 'WORKSPACE' ) );
#27 = APPLICATION_CONTEXT( 'CONFIGURATION CONTROLLED 3D DESIGNS OF MECHANICAL PARTS AND ASSEMBLIES' );
#28 = PRODUCT_CATEGORY( 'part', 'NONE' );
#29 = PRODUCT_RELATED_PRODUCT_CATEGORY( 'detail', ' ', ( #38 ) );
#30 = CALENDAR_DATE( 2019, 9, 5 );
#31 = LOCAL_TIME( 8, 7, 38.0000000000000, #49 );
#32 = PERSON_AND_ORGANIZATION( #50, #51 );
#33 = APPROVAL( #52, 'SOLID MODEL' );
#34 = APPROVAL_ROLE( 'APPROVED' );
#35 = SECURITY_CLASSIFICATION( '', '', #53 );
#36 = PRODUCT_DEFINITION_FORMATION_WITH_SPECIFIED_SOURCE( ' ', 'NONE', #38, .NOT_KNOWN. );
#37 = PRODUCT_DEFINITION( 'NONE', 'NONE', #36, #1 );
#38 = PRODUCT( '1', '1', 'PART-1-DESC', ( #54 ) );
#39 = PRODUCT_DEFINITION_SHAPE( 'NONE', 'NONE', #37 );
#40 = ADVANCED_BREP_SHAPE_REPRESENTATION( '1', ( #55, #56 ), #23 );
#43 = UNCERTAINTY_MEASURE_WITH_UNIT( LENGTH_MEASURE( 0.00100000000000000 ), #45, '', '' );
#45 =  ( CONVERSION_BASED_UNIT( 'MILLIMETRE', #59 )LENGTH_UNIT(  )NAMED_UNIT( #62 ) );
#46 =  ( NAMED_UNIT( #64 )PLANE_ANGLE_UNIT(  )SI_UNIT( $, .RADIAN. ) );
#47 =  ( NAMED_UNIT( #64 )SI_UNIT( $, .STERADIAN. )SOLID_ANGLE_UNIT(  ) );
#49 = COORDINATED_UNIVERSAL_TIME_OFFSET( 1, 0, .AHEAD. );
#50 = PERSON( '', 'UNSPECIFIED', $, $, $, $ );
#51 = ORGANIZATION( 'UNSPECIFIED', 'UNSPECIFIED', 'UNSPECIFIED' );
#52 = APPROVAL_STATUS( 'approved' );
#53 = SECURITY_CLASSIFICATION_LEVEL( 'unclassified' );
#54 = MECHANICAL_CONTEXT( '', #27, 'mechanical' );
#55 = MANIFOLD_SOLID_BREP( '1', #70 );
#56 = AXIS2_PLACEMENT_3D( '', #71, #72, #73 );
#59 = LENGTH_MEASURE_WITH_UNIT( LENGTH_MEASURE( 1.00000000000000 ), #74 );
#62 = DIMENSIONAL_EXPONENTS( 1.00000000000000, 0.000000000000000, 0.000000000000000, 0.000000000000000, 0.000000000000000, 0.000000000000000, 0.000000000000000 );
#64 = DIMENSIONAL_EXPONENTS( 0.000000000000000, 0.000000000000000, 0.000000000000000, 0.000000000000000, 0.000000000000000, 0.000000000000000, 0.000000000000000 );
#70 = CLOSED_SHELL( '', ( #75, #76, #77, #78, #79, #80, #81, #82, #83, #84, #85, #86, #87 ) );
#71 = CARTESIAN_POINT( '', ( 0.000000000000000, 0.000000000000000, 0.000000000000000 ) );
#72 = DIRECTION( '', ( 0.000000000000000, 0.000000000000000, 1.00000000000000 ) );
#73 = DIRECTION( '', ( 1.00000000000000, 0.000000000000000, 0.000000000000000 ) );
#74 =  ( LENGTH_UNIT(  )NAMED_UNIT( #62 )SI_UNIT( .MILLI., .METRE. ) );
#75 = ADVANCED_FACE( '', ( #89 ), #90, .F. );
#76 = ADVANCED_FACE( '', ( #91 ), #92, .F. );
#77 = ADVANCED_FACE( '', ( #93 ), #94, .T. );
#78 = ADVANCED_FACE( '', ( #95, #96 ), #97, .T. );
#79 = ADVANCED_FACE( '', ( #98 ), #99, .T. );
#80 = ADVANCED_FACE( '', ( #100 ), #101, .F. );
#81 = ADVANCED_FACE( '', ( #102, #103 ), #104, .F. );
#82 = ADVANCED_FACE( '', ( #105 ), #106, .T. );
#83 = ADVANCED_FACE( '', ( #107 ), #108, .T. );
#84 = ADVANCED_FACE( '', ( #109 ), #110, .T. );
#85 = ADVANCED_FACE( '', ( #111 ), #112, .T. );
#86 = ADVANCED_FACE( '', ( #113 ), #114, .T. );
#87 = ADVANCED_FACE( '', ( #115, #116 ), #117, .F. );
#89 = FACE_OUTER_BOUND( '', #118, .T. );
#90 = CYLINDRICAL_SURFACE( '', #119, 9.00000000000000 );
#91 = FACE_OUTER_BOUND( '', #120, .T. );
#92 = CYLINDRICAL_SURFACE( '', #121, 2.50000000000000 );
#93 = FACE_OUTER_BOUND( '', #122, .T. );
#94 = PLANE( '', #123 );
#95 = FACE_BOUND( '', #124, .T. );
#96 = FACE_OUTER_BOUND( '', #125, .T. );
#97 = PLANE( '', #126 );
#98 = FACE_OUTER_BOUND( '', #127, .T. );
#99 = CYLINDRICAL_SURFACE( '', #128, 15.0000000000000 );
#100 = FACE_OUTER_BOUND( '', #129, .T. );
#101 = CYLINDRICAL_SURFACE( '', #130, 2.50000000000000 );
#102 = FACE_BOUND( '', #131, .T. );
#103 = FACE_OUTER_BOUND( '', #132, .T. );
#104 = PLANE( '', #133 );
#105 = FACE_OUTER_BOUND( '', #134, .T. );
#106 = PLANE( '', #135 );
#107 = FACE_OUTER_BOUND( '', #136, .T. );
#108 = PLANE( '', #137 );
#109 = FACE_OUTER_BOUND( '', #138, .T. );
#110 = CYLINDRICAL_SURFACE( '', #139, 10.0000000000000 );
#111 = FACE_OUTER_BOUND( '', #140, .T. );
#112 = PLANE( '', #141 );
#113 = FACE_OUTER_BOUND( '', #142, .T. );
#114 = CYLINDRICAL_SURFACE( '', #143, 5.10000000000000 );
#115 = FACE_OUTER_BOUND( '', #144, .T. );
#116 = FACE_OUTER_BOUND( '', #145, .T. );
#117 = CYLINDRICAL_SURFACE( '', #146, 3.25000000000000 );
#118 = EDGE_LOOP( '', ( #147, #148, #149, #150 ) );
#119 = AXIS2_PLACEMENT_3D( '', #151, #152, #153 );
#120 = EDGE_LOOP( '', ( #154, #155, #156, #157 ) );
#121 = AXIS2_PLACEMENT_3D( '', #158, #159, #160 );
#122 = EDGE_LOOP( '', ( #161, #162, #163, #164 ) );
#123 = AXIS2_PLACEMENT_3D( '', #165, #166, #167 );
#124 = EDGE_LOOP( '', ( #168 ) );
#125 = EDGE_LOOP( '', ( #169, #170, #171, #172, #173, #174, #175, #176, #177, #178 ) );
#126 = AXIS2_PLACEMENT_3D( '', #179, #180, #181 );
#127 = EDGE_LOOP( '', ( #182, #183, #184, #185 ) );
#128 = AXIS2_PLACEMENT_3D( '', #186, #187, #188 );
#129 = EDGE_LOOP( '', ( #189, #190, #191, #192 ) );
#130 = AXIS2_PLACEMENT_3D( '', #193, #194, #195 );
#131 = EDGE_LOOP( '', ( #196 ) );
#132 = EDGE_LOOP( '', ( #197, #198, #199, #200, #201, #202, #203, #204, #205, #206 ) );
#133 = AXIS2_PLACEMENT_3D( '', #207, #208, #209 );
#134 = EDGE_LOOP( '', ( #210, #211, #212, #213 ) );
#135 = AXIS2_PLACEMENT_3D( '', #214, #215, #216 );
#136 = EDGE_LOOP( '', ( #217, #218, #219, #220 ) );
#137 = AXIS2_PLACEMENT_3D( '', #221, #222, #223 );
#138 = EDGE_LOOP( '', ( #224, #225, #226, #227 ) );
#139 = AXIS2_PLACEMENT_3D( '', #228, #229, #230 );
#140 = EDGE_LOOP( '', ( #231, #232, #233, #234 ) );
#141 = AXIS2_PLACEMENT_3D( '', #235, #236, #237 );
#142 = EDGE_LOOP( '', ( #238, #239, #240, #241 ) );
#143 = AXIS2_PLACEMENT_3D( '', #242, #243, #244 );
#144 = EDGE_LOOP( '', ( #245 ) );
#145 = EDGE_LOOP( '', ( #246 ) );
#146 = AXIS2_PLACEMENT_3D( '', #247, #248, #249 );
#147 = ORIENTED_EDGE( '', *, *, #250, .F. );
#148 = ORIENTED_EDGE( '', *, *, #251, .F. );
#149 = ORIENTED_EDGE( '', *, *, #252, .T. );
#150 = ORIENTED_EDGE( '', *, *, #253, .T. );
#151 = CARTESIAN_POINT( '', ( -23.0000000000000, 0.000000000000000, 10.0000000000000 ) );
#152 = DIRECTION( '', ( -0.000000000000000, -0.000000000000000, 1.00000000000000 ) );
#153 = DIRECTION( '', ( 1.00000000000000, -6.12303176911189E-017, 0.000000000000000 ) );
#154 = ORIENTED_EDGE( '', *, *, #254, .F. );
#155 = ORIENTED_EDGE( '', *, *, #255, .F. );
#156 = ORIENTED_EDGE( '', *, *, #256, .F. );
#157 = ORIENTED_EDGE( '', *, *, #257, .F. );
#158 = CARTESIAN_POINT( '', ( 15.8229532536008, -7.40000000000000, 10.0000000000000 ) );
#159 = DIRECTION( '', ( -0.000000000000000, -0.000000000000000, 1.00000000000000 ) );
#160 = DIRECTION( '', ( -1.00000000000000, 0.000000000000000, 0.000000000000000 ) );
#161 = ORIENTED_EDGE( '', *, *, #258, .F. );
#162 = ORIENTED_EDGE( '', *, *, #253, .F. );
#163 = ORIENTED_EDGE( '', *, *, #259, .T. );
#164 = ORIENTED_EDGE( '', *, *, #260, .T. );
#165 = CARTESIAN_POINT( '', ( -26.0000000000000, -8.48528137423857, 10.0000000000000 ) );
#166 = DIRECTION( '', ( 1.00000000000000, -6.12303176911189E-017, 0.000000000000000 ) );
#167 = DIRECTION( '', ( 6.12303176911189E-017, 1.00000000000000, 0.000000000000000 ) );
#168 = ORIENTED_EDGE( '', *, *, #261, .T. );
#169 = ORIENTED_EDGE( '', *, *, #252, .F. );
#170 = ORIENTED_EDGE( '', *, *, #262, .F. );
#171 = ORIENTED_EDGE( '', *, *, #263, .F. );
#172 = ORIENTED_EDGE( '', *, *, #264, .F. );
#173 = ORIENTED_EDGE( '', *, *, #265, .F. );
#174 = ORIENTED_EDGE( '', *, *, #254, .T. );
#175 = ORIENTED_EDGE( '', *, *, #266, .F. );
#176 = ORIENTED_EDGE( '', *, *, #267, .T. );
#177 = ORIENTED_EDGE( '', *, *, #268, .F. );
#178 = ORIENTED_EDGE( '', *, *, #259, .F. );
#179 = CARTESIAN_POINT( '', ( -23.0000000000000, 0.000000000000000, 10.0000000000000 ) );
#180 = DIRECTION( '', ( 0.000000000000000, 0.000000000000000, 1.00000000000000 ) );
#181 = DIRECTION( '', ( -1.00000000000000, 6.12303176911189E-017, 0.000000000000000 ) );
#182 = ORIENTED_EDGE( '', *, *, #268, .T. );
#183 = ORIENTED_EDGE( '', *, *, #269, .T. );
#184 = ORIENTED_EDGE( '', *, *, #270, .F. );
#185 = ORIENTED_EDGE( '', *, *, #260, .F. );
#186 = CARTESIAN_POINT( '', ( -23.0000000000000, 0.000000000000000, 10.0000000000000 ) );
#187 = DIRECTION( '', ( -0.000000000000000, -0.000000000000000, 1.00000000000000 ) );
#188 = DIRECTION( '', ( 1.00000000000000, -6.12303176911189E-017, 0.000000000000000 ) );
#189 = ORIENTED_EDGE( '', *, *, #267, .F. );
#190 = ORIENTED_EDGE( '', *, *, #271, .F. );
#191 = ORIENTED_EDGE( '', *, *, #272, .F. );
#192 = ORIENTED_EDGE( '', *, *, #269, .F. );
#193 = CARTESIAN_POINT( '', ( -7.14156375931095, -7.40000000000000, 10.0000000000000 ) );
#194 = DIRECTION( '', ( -0.000000000000000, -0.000000000000000, 1.00000000000000 ) );
#195 = DIRECTION( '', ( -1.00000000000000, 0.000000000000000, 0.000000000000000 ) );
#196 = ORIENTED_EDGE( '', *, *, #273, .T. );
#197 = ORIENTED_EDGE( '', *, *, #250, .T. );
#198 = ORIENTED_EDGE( '', *, *, #258, .T. );
#199 = ORIENTED_EDGE( '', *, *, #270, .T. );
#200 = ORIENTED_EDGE( '', *, *, #272, .T. );
#201 = ORIENTED_EDGE( '', *, *, #274, .T. );
#202 = ORIENTED_EDGE( '', *, *, #256, .T. );
#203 = ORIENTED_EDGE( '', *, *, #275, .T. );
#204 = ORIENTED_EDGE( '', *, *, #276, .T. );
#205 = ORIENTED_EDGE( '', *, *, #277, .T. );
#206 = ORIENTED_EDGE( '', *, *, #278, .T. );
#207 = CARTESIAN_POINT( '', ( -23.0000000000000, 0.000000000000000, 0.000000000000000 ) );
#208 = DIRECTION( '', ( 0.000000000000000, 0.000000000000000, 1.00000000000000 ) );
#209 = DIRECTION( '', ( -1.00000000000000, 6.12303176911189E-017, 0.000000000000000 ) );
#210 = ORIENTED_EDGE( '', *, *, #274, .F. );
#211 = ORIENTED_EDGE( '', *, *, #271, .T. );
#212 = ORIENTED_EDGE( '', *, *, #266, .T. );
#213 = ORIENTED_EDGE( '', *, *, #257, .T. );
#214 = CARTESIAN_POINT( '', ( -11.7310160174042, -9.90000000000000, 10.0000000000000 ) );
#215 = DIRECTION( '', ( 0.000000000000000, 1.00000000000000, 0.000000000000000 ) );
#216 = DIRECTION( '', ( -1.00000000000000, 0.000000000000000, 0.000000000000000 ) );
#217 = ORIENTED_EDGE( '', *, *, #278, .F. );
#218 = ORIENTED_EDGE( '', *, *, #279, .F. );
#219 = ORIENTED_EDGE( '', *, *, #262, .T. );
#220 = ORIENTED_EDGE( '', *, *, #251, .T. );
#221 = CARTESIAN_POINT( '', ( -20.0000000000000, -11.3331796124201, 10.0000000000000 ) );
#222 = DIRECTION( '', ( -0.815935829999247, 0.578142474934544, 0.000000000000000 ) );
#223 = DIRECTION( '', ( -0.578142474934544, -0.815935829999247, 0.000000000000000 ) );
#224 = ORIENTED_EDGE( '', *, *, #277, .F. );
#225 = ORIENTED_EDGE( '', *, *, #280, .F. );
#226 = ORIENTED_EDGE( '', *, *, #263, .T. );
#227 = ORIENTED_EDGE( '', *, *, #279, .T. );
#228 = CARTESIAN_POINT( '', ( -12.2610830217125, -5.00000000000000, 10.0000000000000 ) );
#229 = DIRECTION( '', ( -0.000000000000000, -0.000000000000000, 1.00000000000000 ) );
#230 = DIRECTION( '', ( 1.00000000000000, -6.12303176911189E-017, 0.000000000000000 ) );
#231 = ORIENTED_EDGE( '', *, *, #276, .F. );
#232 = ORIENTED_EDGE( '', *, *, #281, .F. );
#233 = ORIENTED_EDGE( '', *, *, #264, .T. );
#234 = ORIENTED_EDGE( '', *, *, #280, .T. );
#235 = CARTESIAN_POINT( '', ( 23.0000000000000, -15.0000000000000, 10.0000000000000 ) );
#236 = DIRECTION( '', ( 0.000000000000000, -1.00000000000000, 0.000000000000000 ) );
#237 = DIRECTION( '', ( 1.00000000000000, 0.000000000000000, 0.000000000000000 ) );
#238 = ORIENTED_EDGE( '', *, *, #275, .F. );
#239 = ORIENTED_EDGE( '', *, *, #255, .T. );
#240 = ORIENTED_EDGE( '', *, *, #265, .T. );
#241 = ORIENTED_EDGE( '', *, *, #281, .T. );
#242 = CARTESIAN_POINT( '', ( 23.0000000000000, -9.90000000000000, 10.0000000000000 ) );
#243 = DIRECTION( '', ( -0.000000000000000, -0.000000000000000, 1.00000000000000 ) );
#244 = DIRECTION( '', ( 1.00000000000000, -6.12303176911189E-017, 0.000000000000000 ) );
#245 = ORIENTED_EDGE( '', *, *, #261, .F. );
#246 = ORIENTED_EDGE( '', *, *, #273, .F. );
#247 = CARTESIAN_POINT( '', ( 23.0000000000000, -9.90000000000000, -0.0999999999999994 ) );
#248 = DIRECTION( '', ( -0.000000000000000, -0.000000000000000, -1.00000000000000 ) );
#249 = DIRECTION( '', ( 1.00000000000000, 0.000000000000000, -0.000000000000000 ) );
#250 = EDGE_CURVE( '', #282, #283, #284, .T. );
#251 = EDGE_CURVE( '', #285, #282, #286, .T. );
#252 = EDGE_CURVE( '', #285, #287, #288, .T. );
#253 = EDGE_CURVE( '', #287, #283, #289, .T. );
#254 = EDGE_CURVE( '', #290, #291, #292, .F. );
#255 = EDGE_CURVE( '', #293, #290, #294, .F. );
#256 = EDGE_CURVE( '', #295, #293, #296, .T. );
#257 = EDGE_CURVE( '', #291, #295, #297, .F. );
#258 = EDGE_CURVE( '', #283, #298, #299, .T. );
#259 = EDGE_CURVE( '', #287, #300, #301, .T. );
#260 = EDGE_CURVE( '', #300, #298, #302, .T. );
#261 = EDGE_CURVE( '', #303, #303, #304, .T. );
#262 = EDGE_CURVE( '', #305, #285, #306, .T. );
#263 = EDGE_CURVE( '', #307, #305, #308, .T. );
#264 = EDGE_CURVE( '', #309, #307, #310, .T. );
#265 = EDGE_CURVE( '', #290, #309, #311, .T. );
#266 = EDGE_CURVE( '', #312, #291, #313, .T. );
#267 = EDGE_CURVE( '', #312, #314, #315, .F. );
#268 = EDGE_CURVE( '', #300, #314, #316, .T. );
#269 = EDGE_CURVE( '', #314, #317, #318, .T. );
#270 = EDGE_CURVE( '', #298, #317, #319, .T. );
#271 = EDGE_CURVE( '', #320, #312, #321, .T. );
#272 = EDGE_CURVE( '', #317, #320, #322, .T. );
#273 = EDGE_CURVE( '', #323, #323, #324, .T. );
#274 = EDGE_CURVE( '', #320, #295, #325, .T. );
#275 = EDGE_CURVE( '', #293, #326, #327, .T. );
#276 = EDGE_CURVE( '', #326, #328, #329, .T. );
#277 = EDGE_CURVE( '', #328, #330, #331, .T. );
#278 = EDGE_CURVE( '', #330, #282, #332, .T. );
#279 = EDGE_CURVE( '', #305, #330, #333, .T. );
#280 = EDGE_CURVE( '', #307, #328, #334, .T. );
#281 = EDGE_CURVE( '', #309, #326, #335, .T. );
#282 = VERTEX_POINT( '', #336 );
#283 = VERTEX_POINT( '', #337 );
#284 = CIRCLE( '', #338, 9.00000000000000 );
#285 = VERTEX_POINT( '', #339 );
#286 = LINE( '', #340, #341 );
#287 = VERTEX_POINT( '', #342 );
#288 = CIRCLE( '', #343, 9.00000000000000 );
#289 = LINE( '', #344, #345 );
#290 = VERTEX_POINT( '', #346 );
#291 = VERTEX_POINT( '', #347 );
#292 = CIRCLE( '', #348, 2.50000000000000 );
#293 = VERTEX_POINT( '', #349 );
#294 = LINE( '', #350, #351 );
#295 = VERTEX_POINT( '', #352 );
#296 = CIRCLE( '', #353, 2.50000000000000 );
#297 = LINE( '', #354, #355 );
#298 = VERTEX_POINT( '', #356 );
#299 = LINE( '', #357, #358 );
#300 = VERTEX_POINT( '', #359 );
#301 = LINE( '', #360, #361 );
#302 = LINE( '', #362, #363 );
#303 = VERTEX_POINT( '', #364 );
#304 = CIRCLE( '', #365, 3.25000000000000 );
#305 = VERTEX_POINT( '', #366 );
#306 = LINE( '', #367, #368 );
#307 = VERTEX_POINT( '', #369 );
#308 = CIRCLE( '', #370, 10.0000000000000 );
#309 = VERTEX_POINT( '', #371 );
#310 = LINE( '', #372, #373 );
#311 = CIRCLE( '', #374, 5.10000000000000 );
#312 = VERTEX_POINT( '', #375 );
#313 = LINE( '', #376, #377 );
#314 = VERTEX_POINT( '', #378 );
#315 = CIRCLE( '', #379, 2.50000000000000 );
#316 = CIRCLE( '', #380, 15.0000000000000 );
#317 = VERTEX_POINT( '', #381 );
#318 = LINE( '', #382, #383 );
#319 = CIRCLE( '', #384, 15.0000000000000 );
#320 = VERTEX_POINT( '', #385 );
#321 = LINE( '', #386, #387 );
#322 = CIRCLE( '', #388, 2.50000000000000 );
#323 = VERTEX_POINT( '', #389 );
#324 = CIRCLE( '', #390, 3.25000000000000 );
#325 = LINE( '', #391, #392 );
#326 = VERTEX_POINT( '', #393 );
#327 = CIRCLE( '', #394, 5.10000000000000 );
#328 = VERTEX_POINT( '', #395 );
#329 = LINE( '', #396, #397 );
#330 = VERTEX_POINT( '', #398 );
#331 = CIRCLE( '', #399, 10.0000000000000 );
#332 = LINE( '', #400, #401 );
#333 = LINE( '', #402, #403 );
#334 = LINE( '', #404, #405 );
#335 = LINE( '', #406, #407 );
#336 = CARTESIAN_POINT( '', ( -15.6565775300068, -5.20328227441091, 0.000000000000000 ) );
#337 = CARTESIAN_POINT( '', ( -26.0000000000000, -8.48528137423857, 0.000000000000000 ) );
#338 = AXIS2_PLACEMENT_3D( '', #408, #409, #410 );
#339 = CARTESIAN_POINT( '', ( -15.6565775300068, -5.20328227441091, 10.0000000000000 ) );
#340 = CARTESIAN_POINT( '', ( -15.6565775300068, -5.20328227441091, 10.0000000000000 ) );
#341 = VECTOR( '', #411, 1000.00000000000 );
#342 = CARTESIAN_POINT( '', ( -26.0000000000000, -8.48528137423857, 10.0000000000000 ) );
#343 = AXIS2_PLACEMENT_3D( '', #412, #413, #414 );
#344 = CARTESIAN_POINT( '', ( -26.0000000000000, -8.48528137423857, 10.0000000000000 ) );
#345 = VECTOR( '', #415, 1000.00000000000 );
#346 = CARTESIAN_POINT( '', ( 18.1838238938637, -8.22236842105263, 10.0000000000000 ) );
#347 = CARTESIAN_POINT( '', ( 15.8229532536008, -9.90000000000000, 10.0000000000000 ) );
#348 = AXIS2_PLACEMENT_3D( '', #416, #417, #418 );
#349 = CARTESIAN_POINT( '', ( 18.1838238938637, -8.22236842105263, 0.000000000000000 ) );
#350 = CARTESIAN_POINT( '', ( 18.1838238938637, -8.22236842105263, 10.0000000000000 ) );
#351 = VECTOR( '', #419, 1000.00000000000 );
#352 = CARTESIAN_POINT( '', ( 15.8229532536008, -9.90000000000000, 0.000000000000000 ) );
#353 = AXIS2_PLACEMENT_3D( '', #420, #421, #422 );
#354 = CARTESIAN_POINT( '', ( 15.8229532536008, -9.90000000000000, 0.000000000000000 ) );
#355 = VECTOR( '', #423, 1000.00000000000 );
#356 = CARTESIAN_POINT( '', ( -26.0000000000000, -14.6969384566991, 0.000000000000000 ) );
#357 = CARTESIAN_POINT( '', ( -26.0000000000000, -8.48528137423857, 0.000000000000000 ) );
#358 = VECTOR( '', #424, 1000.00000000000 );
#359 = CARTESIAN_POINT( '', ( -26.0000000000000, -14.6969384566991, 10.0000000000000 ) );
#360 = CARTESIAN_POINT( '', ( -26.0000000000000, -8.48528137423857, 10.0000000000000 ) );
#361 = VECTOR( '', #425, 1000.00000000000 );
#362 = CARTESIAN_POINT( '', ( -26.0000000000000, -14.6969384566991, 10.0000000000000 ) );
#363 = VECTOR( '', #426, 1000.00000000000 );
#364 = CARTESIAN_POINT( '', ( 26.2500000000000, -9.90000000000000, 10.0000000000000 ) );
#365 = AXIS2_PLACEMENT_3D( '', #427, #428, #429 );
#366 = CARTESIAN_POINT( '', ( -20.0000000000000, -11.3331796124201, 10.0000000000000 ) );
#367 = CARTESIAN_POINT( '', ( -20.0000000000000, -11.3331796124201, 10.0000000000000 ) );
#368 = VECTOR( '', #430, 1000.00000000000 );
#369 = CARTESIAN_POINT( '', ( -12.2610830217125, -15.0000000000000, 10.0000000000000 ) );
#370 = AXIS2_PLACEMENT_3D( '', #431, #432, #433 );
#371 = CARTESIAN_POINT( '', ( 23.0000000000000, -15.0000000000000, 10.0000000000000 ) );
#372 = CARTESIAN_POINT( '', ( 23.0000000000000, -15.0000000000000, 10.0000000000000 ) );
#373 = VECTOR( '', #434, 1000.00000000000 );
#374 = AXIS2_PLACEMENT_3D( '', #435, #436, #437 );
#375 = CARTESIAN_POINT( '', ( -7.14156375931095, -9.90000000000000, 10.0000000000000 ) );
#376 = CARTESIAN_POINT( '', ( -11.7310160174042, -9.90000000000000, 10.0000000000000 ) );
#377 = VECTOR( '', #438, 1000.00000000000 );
#378 = CARTESIAN_POINT( '', ( -9.40705465083795, -6.34285714285714, 10.0000000000000 ) );
#379 = AXIS2_PLACEMENT_3D( '', #439, #440, #441 );
#380 = AXIS2_PLACEMENT_3D( '', #442, #443, #444 );
#381 = CARTESIAN_POINT( '', ( -9.40705465083795, -6.34285714285714, 0.000000000000000 ) );
#382 = CARTESIAN_POINT( '', ( -9.40705465083795, -6.34285714285714, 10.0000000000000 ) );
#383 = VECTOR( '', #445, 1000.00000000000 );
#384 = AXIS2_PLACEMENT_3D( '', #446, #447, #448 );
#385 = CARTESIAN_POINT( '', ( -7.14156375931095, -9.90000000000000, 0.000000000000000 ) );
#386 = CARTESIAN_POINT( '', ( -7.14156375931095, -9.90000000000000, 10.0000000000000 ) );
#387 = VECTOR( '', #449, 1000.00000000000 );
#388 = AXIS2_PLACEMENT_3D( '', #450, #451, #452 );
#389 = CARTESIAN_POINT( '', ( 26.2500000000000, -9.90000000000000, 0.000000000000000 ) );
#390 = AXIS2_PLACEMENT_3D( '', #453, #454, #455 );
#391 = CARTESIAN_POINT( '', ( -11.7310160174042, -9.90000000000000, 0.000000000000000 ) );
#392 = VECTOR( '', #456, 1000.00000000000 );
#393 = CARTESIAN_POINT( '', ( 23.0000000000000, -15.0000000000000, 0.000000000000000 ) );
#394 = AXIS2_PLACEMENT_3D( '', #457, #458, #459 );
#395 = CARTESIAN_POINT( '', ( -12.2610830217125, -15.0000000000000, 0.000000000000000 ) );
#396 = CARTESIAN_POINT( '', ( 23.0000000000000, -15.0000000000000, 0.000000000000000 ) );
#397 = VECTOR( '', #460, 1000.00000000000 );
#398 = CARTESIAN_POINT( '', ( -20.0000000000000, -11.3331796124201, 0.000000000000000 ) );
#399 = AXIS2_PLACEMENT_3D( '', #461, #462, #463 );
#400 = CARTESIAN_POINT( '', ( -20.0000000000000, -11.3331796124201, 0.000000000000000 ) );
#401 = VECTOR( '', #464, 1000.00000000000 );
#402 = CARTESIAN_POINT( '', ( -20.0000000000000, -11.3331796124201, 10.0000000000000 ) );
#403 = VECTOR( '', #465, 1000.00000000000 );
#404 = CARTESIAN_POINT( '', ( -12.2610830217125, -15.0000000000000, 10.0000000000000 ) );
#405 = VECTOR( '', #466, 1000.00000000000 );
#406 = CARTESIAN_POINT( '', ( 23.0000000000000, -15.0000000000000, 10.0000000000000 ) );
#407 = VECTOR( '', #467, 1000.00000000000 );
#408 = CARTESIAN_POINT( '', ( -23.0000000000000, 0.000000000000000, 0.000000000000000 ) );
#409 = DIRECTION( '', ( 0.000000000000000, -0.000000000000000, 1.00000000000000 ) );
#410 = DIRECTION( '', ( 1.00000000000000, 1.31516735195193E-016, 0.000000000000000 ) );
#411 = DIRECTION( '', ( 0.000000000000000, 0.000000000000000, -1.00000000000000 ) );
#412 = CARTESIAN_POINT( '', ( -23.0000000000000, 0.000000000000000, 10.0000000000000 ) );
#413 = DIRECTION( '', ( 0.000000000000000, -0.000000000000000, 1.00000000000000 ) );
#414 = DIRECTION( '', ( 1.00000000000000, 1.31516735195193E-016, 0.000000000000000 ) );
#415 = DIRECTION( '', ( 0.000000000000000, 0.000000000000000, -1.00000000000000 ) );
#416 = CARTESIAN_POINT( '', ( 15.8229532536008, -7.40000000000000, 10.0000000000000 ) );
#417 = DIRECTION( '', ( 0.000000000000000, 0.000000000000000, 1.00000000000000 ) );
#418 = DIRECTION( '', ( 1.00000000000000, 0.000000000000000, -0.000000000000000 ) );
#419 = DIRECTION( '', ( 0.000000000000000, 0.000000000000000, -1.00000000000000 ) );
#420 = CARTESIAN_POINT( '', ( 15.8229532536008, -7.40000000000000, 0.000000000000000 ) );
#421 = DIRECTION( '', ( 0.000000000000000, 0.000000000000000, 1.00000000000000 ) );
#422 = DIRECTION( '', ( 1.00000000000000, 0.000000000000000, -0.000000000000000 ) );
#423 = DIRECTION( '', ( -0.000000000000000, 0.000000000000000, 1.00000000000000 ) );
#424 = DIRECTION( '', ( -6.12303176911189E-017, -1.00000000000000, 0.000000000000000 ) );
#425 = DIRECTION( '', ( -6.12303176911189E-017, -1.00000000000000, 0.000000000000000 ) );
#426 = DIRECTION( '', ( 0.000000000000000, 0.000000000000000, -1.00000000000000 ) );
#427 = CARTESIAN_POINT( '', ( 23.0000000000000, -9.90000000000000, 10.0000000000000 ) );
#428 = DIRECTION( '', ( 0.000000000000000, 0.000000000000000, -1.00000000000000 ) );
#429 = DIRECTION( '', ( 1.00000000000000, 0.000000000000000, 0.000000000000000 ) );
#430 = DIRECTION( '', ( 0.578142474934545, 0.815935829999247, 0.000000000000000 ) );
#431 = CARTESIAN_POINT( '', ( -12.2610830217125, -5.00000000000000, 10.0000000000000 ) );
#432 = DIRECTION( '', ( -0.000000000000000, 0.000000000000000, -1.00000000000000 ) );
#433 = DIRECTION( '', ( -0.773891697828751, -0.633317961242008, 0.000000000000000 ) );
#434 = DIRECTION( '', ( -1.00000000000000, 0.000000000000000, 0.000000000000000 ) );
#435 = CARTESIAN_POINT( '', ( 23.0000000000000, -9.90000000000000, 10.0000000000000 ) );
#436 = DIRECTION( '', ( -0.000000000000000, 0.000000000000000, -1.00000000000000 ) );
#437 = DIRECTION( '', ( -2.78236518196846E-015, -1.00000000000000, 0.000000000000000 ) );
#438 = DIRECTION( '', ( 1.00000000000000, 0.000000000000000, 0.000000000000000 ) );
#439 = CARTESIAN_POINT( '', ( -7.14156375931095, -7.40000000000000, 10.0000000000000 ) );
#440 = DIRECTION( '', ( 0.000000000000000, 0.000000000000000, 1.00000000000000 ) );
#441 = DIRECTION( '', ( 1.00000000000000, 0.000000000000000, -0.000000000000000 ) );
#442 = CARTESIAN_POINT( '', ( -23.0000000000000, 0.000000000000000, 10.0000000000000 ) );
#443 = DIRECTION( '', ( 0.000000000000000, 0.000000000000000, -1.00000000000000 ) );
#444 = DIRECTION( '', ( 1.00000000000000, 5.44179140406683E-017, 0.000000000000000 ) );
#445 = DIRECTION( '', ( 0.000000000000000, 0.000000000000000, -1.00000000000000 ) );
#446 = CARTESIAN_POINT( '', ( -23.0000000000000, 0.000000000000000, 0.000000000000000 ) );
#447 = DIRECTION( '', ( 0.000000000000000, 0.000000000000000, -1.00000000000000 ) );
#448 = DIRECTION( '', ( 1.00000000000000, 5.44179140406683E-017, 0.000000000000000 ) );
#449 = DIRECTION( '', ( -0.000000000000000, 0.000000000000000, 1.00000000000000 ) );
#450 = CARTESIAN_POINT( '', ( -7.14156375931095, -7.40000000000000, 0.000000000000000 ) );
#451 = DIRECTION( '', ( 0.000000000000000, 0.000000000000000, 1.00000000000000 ) );
#452 = DIRECTION( '', ( 1.00000000000000, 0.000000000000000, -0.000000000000000 ) );
#453 = CARTESIAN_POINT( '', ( 23.0000000000000, -9.90000000000000, 0.000000000000000 ) );
#454 = DIRECTION( '', ( 0.000000000000000, 0.000000000000000, 1.00000000000000 ) );
#455 = DIRECTION( '', ( 1.00000000000000, 0.000000000000000, -0.000000000000000 ) );
#456 = DIRECTION( '', ( 1.00000000000000, 0.000000000000000, 0.000000000000000 ) );
#457 = CARTESIAN_POINT( '', ( 23.0000000000000, -9.90000000000000, 0.000000000000000 ) );
#458 = DIRECTION( '', ( -0.000000000000000, 0.000000000000000, -1.00000000000000 ) );
#459 = DIRECTION( '', ( -2.78236518196846E-015, -1.00000000000000, 0.000000000000000 ) );
#460 = DIRECTION( '', ( -1.00000000000000, 0.000000000000000, 0.000000000000000 ) );
#461 = CARTESIAN_POINT( '', ( -12.2610830217125, -5.00000000000000, 0.000000000000000 ) );
#462 = DIRECTION( '', ( -0.000000000000000, 0.000000000000000, -1.00000000000000 ) );
#463 = DIRECTION( '', ( -0.773891697828751, -0.633317961242008, 0.000000000000000 ) );
#464 = DIRECTION( '', ( 0.578142474934545, 0.815935829999247, 0.000000000000000 ) );
#465 = DIRECTION( '', ( 0.000000000000000, 0.000000000000000, -1.00000000000000 ) );
#466 = DIRECTION( '', ( 0.000000000000000, 0.000000000000000, -1.00000000000000 ) );
#467 = DIRECTION( '', ( 0.000000000000000, 0.000000000000000, -1.00000000000000 ) );
ENDSEC;
END-ISO-10303-21;
