ISO-10303-21;
HEADER;
FILE_DESCRIPTION(('CATIA V5 STEP Exchange'),'2;1');

FILE_NAME('D:\\Utilisateur\\Documents\\Cours IPSA\\A\X2\00E9\X0\ro 3\\A\X2\00E9\X0\roIPSA\\Trident III\\LevierAileron.stp','2019-06-01T21:33:21+00:00',('none'),('none'),'CATIA Version 5 Release 19 GA (IN-10)','CATIA V5 STEP AP203','none');

FILE_SCHEMA(('CONFIG_CONTROL_DESIGN'));

ENDSEC;
/* file written by CATIA V5R19 */
DATA;
#5=PRODUCT('LevierAileron','','',(#2)) ;
#1=APPLICATION_CONTEXT('configuration controlled 3D design of mechanical parts and assemblies') ;
#14=PRODUCT_DEFINITION('',' ',#6,#3) ;
#16=SECURITY_CLASSIFICATION(' ',' ',#15) ;
#15=SECURITY_CLASSIFICATION_LEVEL('unclassified') ;
#47=CARTESIAN_POINT(' ',(0.,0.,0.)) ;
#52=CARTESIAN_POINT('Axis2P3D Location',(0.,-16.,0.)) ;
#57=CARTESIAN_POINT('Line Origine',(0.,-13.1730448645,7.48387096774)) ;
#61=CARTESIAN_POINT('Vertex',(-1.5,-13.1730448645,7.48387096774)) ;
#63=CARTESIAN_POINT('Vertex',(1.5,-13.1730448645,7.48387096774)) ;
#66=CARTESIAN_POINT('Axis2P3D Location',(-1.5,-16.,0.)) ;
#70=CARTESIAN_POINT('Vertex',(-1.5,-24.,9.79717439318E-016)) ;
#73=CARTESIAN_POINT('Line Origine',(0.,-24.,-6.12570991828E-015)) ;
#77=CARTESIAN_POINT('Vertex',(1.5,-24.,9.79717439318E-016)) ;
#80=CARTESIAN_POINT('Axis2P3D Location',(1.5,-16.,0.)) ;
#92=CARTESIAN_POINT('Axis2P3D Location',(-1.5,-16.,0.)) ;
#96=CARTESIAN_POINT('Vertex',(-1.5,-13.1730448645,-7.48387096774)) ;
#99=CARTESIAN_POINT('Line Origine',(0.,-13.1730448645,-7.48387096774)) ;
#103=CARTESIAN_POINT('Vertex',(1.5,-13.1730448645,-7.48387096774)) ;
#106=CARTESIAN_POINT('Axis2P3D Location',(1.5,-16.,0.)) ;
#118=CARTESIAN_POINT('Axis2P3D Location',(0.,-5.0455488499,-29.)) ;
#123=CARTESIAN_POINT('Axis2P3D Location',(-1.5,-5.0455488499,-29.)) ;
#127=CARTESIAN_POINT('Vertex',(-1.5,-5.0455488499,-6.)) ;
#130=CARTESIAN_POINT('Line Origine',(0.,-5.0455488499,-6.)) ;
#134=CARTESIAN_POINT('Vertex',(1.5,-5.0455488499,-6.)) ;
#137=CARTESIAN_POINT('Axis2P3D Location',(1.5,-5.0455488499,-29.)) ;
#149=CARTESIAN_POINT('Axis2P3D Location',(0.,0.,-6.)) ;
#154=CARTESIAN_POINT('Line Origine',(-1.5,-2.52277442495,-6.)) ;
#158=CARTESIAN_POINT('Vertex',(-1.5,0.,-6.)) ;
#161=CARTESIAN_POINT('Line Origine',(0.,0.,-6.)) ;
#165=CARTESIAN_POINT('Vertex',(1.5,0.,-6.)) ;
#168=CARTESIAN_POINT('Line Origine',(1.5,-2.52277442495,-6.)) ;
#180=CARTESIAN_POINT('Line Origine',(-1.5,2.52277442495,-6.)) ;
#184=CARTESIAN_POINT('Vertex',(-1.5,5.0455488499,-6.)) ;
#187=CARTESIAN_POINT('Line Origine',(0.,5.0455488499,-6.)) ;
#191=CARTESIAN_POINT('Vertex',(1.5,5.0455488499,-6.)) ;
#194=CARTESIAN_POINT('Line Origine',(1.5,2.52277442495,-6.)) ;
#206=CARTESIAN_POINT('Axis2P3D Location',(0.,5.0455488499,-29.)) ;
#211=CARTESIAN_POINT('Axis2P3D Location',(-1.5,5.0455488499,-29.)) ;
#215=CARTESIAN_POINT('Vertex',(-1.5,13.1730448645,-7.48387096774)) ;
#218=CARTESIAN_POINT('Line Origine',(0.,13.1730448645,-7.48387096774)) ;
#222=CARTESIAN_POINT('Vertex',(1.5,13.1730448645,-7.48387096774)) ;
#225=CARTESIAN_POINT('Axis2P3D Location',(1.5,5.0455488499,-29.)) ;
#237=CARTESIAN_POINT('Axis2P3D Location',(0.,16.,0.)) ;
#242=CARTESIAN_POINT('Axis2P3D Location',(-1.5,16.,0.)) ;
#246=CARTESIAN_POINT('Vertex',(-1.5,24.,-1.95943487864E-015)) ;
#249=CARTESIAN_POINT('Line Origine',(0.,24.,-1.95943487864E-015)) ;
#253=CARTESIAN_POINT('Vertex',(1.5,24.,-1.95943487864E-015)) ;
#256=CARTESIAN_POINT('Axis2P3D Location',(1.5,16.,0.)) ;
#268=CARTESIAN_POINT('Axis2P3D Location',(-1.5,16.,0.)) ;
#272=CARTESIAN_POINT('Vertex',(-1.5,13.1730448645,7.48387096774)) ;
#275=CARTESIAN_POINT('Line Origine',(0.,13.1730448645,7.48387096774)) ;
#279=CARTESIAN_POINT('Vertex',(1.5,13.1730448645,7.48387096774)) ;
#282=CARTESIAN_POINT('Axis2P3D Location',(1.5,16.,0.)) ;
#294=CARTESIAN_POINT('Axis2P3D Location',(0.,5.0455488499,29.)) ;
#299=CARTESIAN_POINT('Axis2P3D Location',(-1.5,5.0455488499,29.)) ;
#303=CARTESIAN_POINT('Vertex',(-1.5,5.0455488499,6.)) ;
#306=CARTESIAN_POINT('Line Origine',(0.,5.0455488499,6.)) ;
#310=CARTESIAN_POINT('Vertex',(1.5,5.0455488499,6.)) ;
#313=CARTESIAN_POINT('Axis2P3D Location',(1.5,5.0455488499,29.)) ;
#325=CARTESIAN_POINT('Axis2P3D Location',(0.,0.,6.)) ;
#330=CARTESIAN_POINT('Line Origine',(-1.5,2.52277442495,6.)) ;
#334=CARTESIAN_POINT('Vertex',(-1.5,0.,6.)) ;
#337=CARTESIAN_POINT('Line Origine',(0.,0.,6.)) ;
#341=CARTESIAN_POINT('Vertex',(1.5,0.,6.)) ;
#344=CARTESIAN_POINT('Line Origine',(1.5,2.52277442495,6.)) ;
#356=CARTESIAN_POINT('Line Origine',(-1.5,-2.52277442495,6.)) ;
#360=CARTESIAN_POINT('Vertex',(-1.5,-5.0455488499,6.)) ;
#363=CARTESIAN_POINT('Line Origine',(0.,-5.0455488499,6.)) ;
#367=CARTESIAN_POINT('Vertex',(1.5,-5.0455488499,6.)) ;
#370=CARTESIAN_POINT('Line Origine',(1.5,-2.52277442495,6.)) ;
#382=CARTESIAN_POINT('Axis2P3D Location',(0.,-5.0455488499,29.)) ;
#387=CARTESIAN_POINT('Axis2P3D Location',(-1.5,-5.0455488499,29.)) ;
#392=CARTESIAN_POINT('Axis2P3D Location',(1.5,-5.0455488499,29.)) ;
#404=CARTESIAN_POINT('Axis2P3D Location',(0.,16.,0.)) ;
#409=CARTESIAN_POINT('Axis2P3D Location',(1.5,16.,0.)) ;
#413=CARTESIAN_POINT('Vertex',(1.5,13.,3.67394039744E-016)) ;
#415=CARTESIAN_POINT('Vertex',(1.5,19.,0.)) ;
#418=CARTESIAN_POINT('Line Origine',(0.,19.,-7.34788079488E-016)) ;
#422=CARTESIAN_POINT('Vertex',(-1.5,19.,0.)) ;
#425=CARTESIAN_POINT('Axis2P3D Location',(-1.5,16.,0.)) ;
#429=CARTESIAN_POINT('Vertex',(-1.5,13.,3.67394039744E-016)) ;
#432=CARTESIAN_POINT('Line Origine',(0.,13.,3.67394039744E-016)) ;
#444=CARTESIAN_POINT('Axis2P3D Location',(1.5,16.,0.)) ;
#449=CARTESIAN_POINT('Axis2P3D Location',(-1.5,16.,0.)) ;
#461=CARTESIAN_POINT('Axis2P3D Location',(0.,-16.,0.)) ;
#466=CARTESIAN_POINT('Axis2P3D Location',(1.5,-16.,0.)) ;
#470=CARTESIAN_POINT('Vertex',(1.5,-18.2360679775,2.)) ;
#472=CARTESIAN_POINT('Vertex',(1.5,-13.7639320225,2.)) ;
#475=CARTESIAN_POINT('Line Origine',(0.,-13.7639320225,2.)) ;
#479=CARTESIAN_POINT('Vertex',(-1.5,-13.7639320225,2.)) ;
#482=CARTESIAN_POINT('Axis2P3D Location',(-1.5,-16.,0.)) ;
#486=CARTESIAN_POINT('Vertex',(-1.5,-18.2360679775,2.)) ;
#489=CARTESIAN_POINT('Line Origine',(0.,-18.2360679775,2.)) ;
#501=CARTESIAN_POINT('Axis2P3D Location',(0.,-18.2360679775,2.)) ;
#506=CARTESIAN_POINT('Line Origine',(1.5,-16.,2.)) ;
#511=CARTESIAN_POINT('Line Origine',(-1.5,-16.,2.)) ;
#523=CARTESIAN_POINT('Axis2P3D Location',(-1.5,0.,0.)) ;
#551=CARTESIAN_POINT('Axis2P3D Location',(1.5,0.,0.)) ;
#53=DIRECTION('Axis2P3D Direction',(1.,0.,0.)) ;
#54=DIRECTION('Axis2P3D XDirection',(0.,0.353369391939,0.935483870968)) ;
#58=DIRECTION('Vector Direction',(1.,0.,0.)) ;
#67=DIRECTION('Axis2P3D Direction',(1.,0.,0.)) ;
#74=DIRECTION('Vector Direction',(1.,0.,0.)) ;
#81=DIRECTION('Axis2P3D Direction',(1.,0.,0.)) ;
#93=DIRECTION('Axis2P3D Direction',(1.,0.,0.)) ;
#100=DIRECTION('Vector Direction',(1.,0.,0.)) ;
#107=DIRECTION('Axis2P3D Direction',(1.,0.,0.)) ;
#119=DIRECTION('Axis2P3D Direction',(1.,0.,0.)) ;
#120=DIRECTION('Axis2P3D XDirection',(0.,6.12323399574E-017,1.)) ;
#124=DIRECTION('Axis2P3D Direction',(1.,0.,0.)) ;
#131=DIRECTION('Vector Direction',(1.,0.,0.)) ;
#138=DIRECTION('Axis2P3D Direction',(1.,0.,0.)) ;
#150=DIRECTION('Axis2P3D Direction',(-0.,0.,1.)) ;
#151=DIRECTION('Axis2P3D XDirection',(0.,-1.,0.)) ;
#155=DIRECTION('Vector Direction',(0.,-1.,0.)) ;
#162=DIRECTION('Vector Direction',(1.,0.,0.)) ;
#169=DIRECTION('Vector Direction',(0.,-1.,0.)) ;
#181=DIRECTION('Vector Direction',(0.,1.,0.)) ;
#188=DIRECTION('Vector Direction',(1.,0.,0.)) ;
#195=DIRECTION('Vector Direction',(0.,1.,0.)) ;
#207=DIRECTION('Axis2P3D Direction',(1.,0.,0.)) ;
#208=DIRECTION('Axis2P3D XDirection',(0.,0.353369391939,0.935483870968)) ;
#212=DIRECTION('Axis2P3D Direction',(1.,0.,0.)) ;
#219=DIRECTION('Vector Direction',(1.,0.,0.)) ;
#226=DIRECTION('Axis2P3D Direction',(1.,0.,0.)) ;
#238=DIRECTION('Axis2P3D Direction',(1.,0.,0.)) ;
#239=DIRECTION('Axis2P3D XDirection',(-0.,-0.353369391939,-0.935483870968)) ;
#243=DIRECTION('Axis2P3D Direction',(1.,0.,0.)) ;
#250=DIRECTION('Vector Direction',(1.,0.,0.)) ;
#257=DIRECTION('Axis2P3D Direction',(1.,0.,0.)) ;
#269=DIRECTION('Axis2P3D Direction',(1.,0.,0.)) ;
#276=DIRECTION('Vector Direction',(1.,0.,0.)) ;
#283=DIRECTION('Axis2P3D Direction',(1.,0.,0.)) ;
#295=DIRECTION('Axis2P3D Direction',(1.,0.,0.)) ;
#296=DIRECTION('Axis2P3D XDirection',(-0.,-1.83697019872E-016,-1.)) ;
#300=DIRECTION('Axis2P3D Direction',(1.,0.,0.)) ;
#307=DIRECTION('Vector Direction',(1.,0.,0.)) ;
#314=DIRECTION('Axis2P3D Direction',(1.,0.,0.)) ;
#326=DIRECTION('Axis2P3D Direction',(0.,0.,-1.)) ;
#327=DIRECTION('Axis2P3D XDirection',(0.,1.,0.)) ;
#331=DIRECTION('Vector Direction',(0.,1.,0.)) ;
#338=DIRECTION('Vector Direction',(1.,0.,0.)) ;
#345=DIRECTION('Vector Direction',(0.,1.,0.)) ;
#357=DIRECTION('Vector Direction',(0.,-1.,0.)) ;
#364=DIRECTION('Vector Direction',(1.,0.,0.)) ;
#371=DIRECTION('Vector Direction',(0.,-1.,0.)) ;
#383=DIRECTION('Axis2P3D Direction',(1.,0.,0.)) ;
#384=DIRECTION('Axis2P3D XDirection',(-0.,-0.353369391939,-0.935483870968)) ;
#388=DIRECTION('Axis2P3D Direction',(1.,0.,0.)) ;
#393=DIRECTION('Axis2P3D Direction',(1.,0.,0.)) ;
#405=DIRECTION('Axis2P3D Direction',(1.,0.,0.)) ;
#406=DIRECTION('Axis2P3D XDirection',(0.,1.,0.)) ;
#410=DIRECTION('Axis2P3D Direction',(1.,0.,0.)) ;
#419=DIRECTION('Vector Direction',(1.,0.,0.)) ;
#426=DIRECTION('Axis2P3D Direction',(1.,0.,0.)) ;
#433=DIRECTION('Vector Direction',(1.,0.,0.)) ;
#445=DIRECTION('Axis2P3D Direction',(1.,0.,0.)) ;
#450=DIRECTION('Axis2P3D Direction',(1.,0.,0.)) ;
#462=DIRECTION('Axis2P3D Direction',(1.,0.,0.)) ;
#463=DIRECTION('Axis2P3D XDirection',(0.,-0.7453559925,0.666666666667)) ;
#467=DIRECTION('Axis2P3D Direction',(1.,0.,0.)) ;
#476=DIRECTION('Vector Direction',(1.,0.,0.)) ;
#483=DIRECTION('Axis2P3D Direction',(1.,0.,0.)) ;
#490=DIRECTION('Vector Direction',(1.,0.,0.)) ;
#502=DIRECTION('Axis2P3D Direction',(0.,0.,-1.)) ;
#503=DIRECTION('Axis2P3D XDirection',(0.,1.,0.)) ;
#507=DIRECTION('Vector Direction',(0.,1.,0.)) ;
#512=DIRECTION('Vector Direction',(0.,1.,0.)) ;
#524=DIRECTION('Axis2P3D Direction',(1.,0.,0.)) ;
#525=DIRECTION('Axis2P3D XDirection',(0.,1.,0.)) ;
#552=DIRECTION('Axis2P3D Direction',(1.,0.,0.)) ;
#553=DIRECTION('Axis2P3D XDirection',(0.,1.,0.)) ;
#48=AXIS2_PLACEMENT_3D(' ',#47,$,$) ;
#55=AXIS2_PLACEMENT_3D('Cylinder Axis2P3D',#52,#53,#54) ;
#68=AXIS2_PLACEMENT_3D('Circle Axis2P3D',#66,#67,$) ;
#82=AXIS2_PLACEMENT_3D('Circle Axis2P3D',#80,#81,$) ;
#94=AXIS2_PLACEMENT_3D('Circle Axis2P3D',#92,#93,$) ;
#108=AXIS2_PLACEMENT_3D('Circle Axis2P3D',#106,#107,$) ;
#121=AXIS2_PLACEMENT_3D('Cylinder Axis2P3D',#118,#119,#120) ;
#125=AXIS2_PLACEMENT_3D('Circle Axis2P3D',#123,#124,$) ;
#139=AXIS2_PLACEMENT_3D('Circle Axis2P3D',#137,#138,$) ;
#152=AXIS2_PLACEMENT_3D('Plane Axis2P3D',#149,#150,#151) ;
#209=AXIS2_PLACEMENT_3D('Cylinder Axis2P3D',#206,#207,#208) ;
#213=AXIS2_PLACEMENT_3D('Circle Axis2P3D',#211,#212,$) ;
#227=AXIS2_PLACEMENT_3D('Circle Axis2P3D',#225,#226,$) ;
#240=AXIS2_PLACEMENT_3D('Cylinder Axis2P3D',#237,#238,#239) ;
#244=AXIS2_PLACEMENT_3D('Circle Axis2P3D',#242,#243,$) ;
#258=AXIS2_PLACEMENT_3D('Circle Axis2P3D',#256,#257,$) ;
#270=AXIS2_PLACEMENT_3D('Circle Axis2P3D',#268,#269,$) ;
#284=AXIS2_PLACEMENT_3D('Circle Axis2P3D',#282,#283,$) ;
#297=AXIS2_PLACEMENT_3D('Cylinder Axis2P3D',#294,#295,#296) ;
#301=AXIS2_PLACEMENT_3D('Circle Axis2P3D',#299,#300,$) ;
#315=AXIS2_PLACEMENT_3D('Circle Axis2P3D',#313,#314,$) ;
#328=AXIS2_PLACEMENT_3D('Plane Axis2P3D',#325,#326,#327) ;
#385=AXIS2_PLACEMENT_3D('Cylinder Axis2P3D',#382,#383,#384) ;
#389=AXIS2_PLACEMENT_3D('Circle Axis2P3D',#387,#388,$) ;
#394=AXIS2_PLACEMENT_3D('Circle Axis2P3D',#392,#393,$) ;
#407=AXIS2_PLACEMENT_3D('Cylinder Axis2P3D',#404,#405,#406) ;
#411=AXIS2_PLACEMENT_3D('Circle Axis2P3D',#409,#410,$) ;
#427=AXIS2_PLACEMENT_3D('Circle Axis2P3D',#425,#426,$) ;
#446=AXIS2_PLACEMENT_3D('Circle Axis2P3D',#444,#445,$) ;
#451=AXIS2_PLACEMENT_3D('Circle Axis2P3D',#449,#450,$) ;
#464=AXIS2_PLACEMENT_3D('Cylinder Axis2P3D',#461,#462,#463) ;
#468=AXIS2_PLACEMENT_3D('Circle Axis2P3D',#466,#467,$) ;
#484=AXIS2_PLACEMENT_3D('Circle Axis2P3D',#482,#483,$) ;
#504=AXIS2_PLACEMENT_3D('Plane Axis2P3D',#501,#502,#503) ;
#526=AXIS2_PLACEMENT_3D('Plane Axis2P3D',#523,#524,#525) ;
#554=AXIS2_PLACEMENT_3D('Plane Axis2P3D',#551,#552,#553) ;
#40=PRODUCT_DEFINITION_SHAPE(' ',' ',#14) ;
#31=APPROVAL_PERSON_ORGANIZATION(#25,#21,#19) ;
#25=PERSON_AND_ORGANIZATION(#22,#23) ;
#22=PERSON(' ',' ',' ',$,$,$) ;
#23=ORGANIZATION(' ',' ',' ') ;
#21=APPROVAL(#20,' ') ;
#20=APPROVAL_STATUS('not_yet_approved') ;
#19=APPROVAL_ROLE('APPROVER') ;
#13=DATE_AND_TIME(#11,#12) ;
#12=LOCAL_TIME(23,33,21.,#10) ;
#10=COORDINATED_UNIVERSAL_TIME_OFFSET(0,0,.AHEAD.) ;
#86=ORIENTED_EDGE('',*,*,#65,.F.) ;
#87=ORIENTED_EDGE('',*,*,#72,.T.) ;
#88=ORIENTED_EDGE('',*,*,#79,.T.) ;
#89=ORIENTED_EDGE('',*,*,#84,.F.) ;
#112=ORIENTED_EDGE('',*,*,#79,.F.) ;
#113=ORIENTED_EDGE('',*,*,#98,.T.) ;
#114=ORIENTED_EDGE('',*,*,#105,.T.) ;
#115=ORIENTED_EDGE('',*,*,#110,.F.) ;
#143=ORIENTED_EDGE('',*,*,#105,.F.) ;
#144=ORIENTED_EDGE('',*,*,#129,.T.) ;
#145=ORIENTED_EDGE('',*,*,#136,.T.) ;
#146=ORIENTED_EDGE('',*,*,#141,.F.) ;
#174=ORIENTED_EDGE('',*,*,#136,.F.) ;
#175=ORIENTED_EDGE('',*,*,#160,.T.) ;
#176=ORIENTED_EDGE('',*,*,#167,.T.) ;
#177=ORIENTED_EDGE('',*,*,#172,.F.) ;
#200=ORIENTED_EDGE('',*,*,#167,.F.) ;
#201=ORIENTED_EDGE('',*,*,#186,.T.) ;
#202=ORIENTED_EDGE('',*,*,#193,.T.) ;
#203=ORIENTED_EDGE('',*,*,#198,.F.) ;
#231=ORIENTED_EDGE('',*,*,#193,.F.) ;
#232=ORIENTED_EDGE('',*,*,#217,.T.) ;
#233=ORIENTED_EDGE('',*,*,#224,.T.) ;
#234=ORIENTED_EDGE('',*,*,#229,.F.) ;
#262=ORIENTED_EDGE('',*,*,#224,.F.) ;
#263=ORIENTED_EDGE('',*,*,#248,.T.) ;
#264=ORIENTED_EDGE('',*,*,#255,.T.) ;
#265=ORIENTED_EDGE('',*,*,#260,.F.) ;
#288=ORIENTED_EDGE('',*,*,#255,.F.) ;
#289=ORIENTED_EDGE('',*,*,#274,.T.) ;
#290=ORIENTED_EDGE('',*,*,#281,.T.) ;
#291=ORIENTED_EDGE('',*,*,#286,.F.) ;
#319=ORIENTED_EDGE('',*,*,#281,.F.) ;
#320=ORIENTED_EDGE('',*,*,#305,.T.) ;
#321=ORIENTED_EDGE('',*,*,#312,.T.) ;
#322=ORIENTED_EDGE('',*,*,#317,.F.) ;
#350=ORIENTED_EDGE('',*,*,#312,.F.) ;
#351=ORIENTED_EDGE('',*,*,#336,.T.) ;
#352=ORIENTED_EDGE('',*,*,#343,.T.) ;
#353=ORIENTED_EDGE('',*,*,#348,.F.) ;
#376=ORIENTED_EDGE('',*,*,#343,.F.) ;
#377=ORIENTED_EDGE('',*,*,#362,.T.) ;
#378=ORIENTED_EDGE('',*,*,#369,.T.) ;
#379=ORIENTED_EDGE('',*,*,#374,.F.) ;
#398=ORIENTED_EDGE('',*,*,#369,.F.) ;
#399=ORIENTED_EDGE('',*,*,#391,.T.) ;
#400=ORIENTED_EDGE('',*,*,#65,.T.) ;
#401=ORIENTED_EDGE('',*,*,#396,.F.) ;
#438=ORIENTED_EDGE('',*,*,#417,.T.) ;
#439=ORIENTED_EDGE('',*,*,#424,.F.) ;
#440=ORIENTED_EDGE('',*,*,#431,.F.) ;
#441=ORIENTED_EDGE('',*,*,#436,.T.) ;
#455=ORIENTED_EDGE('',*,*,#448,.T.) ;
#456=ORIENTED_EDGE('',*,*,#436,.F.) ;
#457=ORIENTED_EDGE('',*,*,#453,.F.) ;
#458=ORIENTED_EDGE('',*,*,#424,.T.) ;
#495=ORIENTED_EDGE('',*,*,#474,.T.) ;
#496=ORIENTED_EDGE('',*,*,#481,.F.) ;
#497=ORIENTED_EDGE('',*,*,#488,.F.) ;
#498=ORIENTED_EDGE('',*,*,#493,.T.) ;
#517=ORIENTED_EDGE('',*,*,#510,.T.) ;
#518=ORIENTED_EDGE('',*,*,#493,.F.) ;
#519=ORIENTED_EDGE('',*,*,#515,.F.) ;
#520=ORIENTED_EDGE('',*,*,#481,.T.) ;
#529=ORIENTED_EDGE('',*,*,#391,.F.) ;
#530=ORIENTED_EDGE('',*,*,#362,.F.) ;
#531=ORIENTED_EDGE('',*,*,#336,.F.) ;
#532=ORIENTED_EDGE('',*,*,#305,.F.) ;
#533=ORIENTED_EDGE('',*,*,#274,.F.) ;
#534=ORIENTED_EDGE('',*,*,#248,.F.) ;
#535=ORIENTED_EDGE('',*,*,#217,.F.) ;
#536=ORIENTED_EDGE('',*,*,#186,.F.) ;
#537=ORIENTED_EDGE('',*,*,#160,.F.) ;
#538=ORIENTED_EDGE('',*,*,#129,.F.) ;
#539=ORIENTED_EDGE('',*,*,#98,.F.) ;
#540=ORIENTED_EDGE('',*,*,#72,.F.) ;
#543=ORIENTED_EDGE('',*,*,#453,.T.) ;
#544=ORIENTED_EDGE('',*,*,#431,.T.) ;
#547=ORIENTED_EDGE('',*,*,#515,.T.) ;
#548=ORIENTED_EDGE('',*,*,#488,.T.) ;
#557=ORIENTED_EDGE('',*,*,#84,.T.) ;
#558=ORIENTED_EDGE('',*,*,#110,.T.) ;
#559=ORIENTED_EDGE('',*,*,#141,.T.) ;
#560=ORIENTED_EDGE('',*,*,#172,.T.) ;
#561=ORIENTED_EDGE('',*,*,#198,.T.) ;
#562=ORIENTED_EDGE('',*,*,#229,.T.) ;
#563=ORIENTED_EDGE('',*,*,#260,.T.) ;
#564=ORIENTED_EDGE('',*,*,#286,.T.) ;
#565=ORIENTED_EDGE('',*,*,#317,.T.) ;
#566=ORIENTED_EDGE('',*,*,#348,.T.) ;
#567=ORIENTED_EDGE('',*,*,#374,.T.) ;
#568=ORIENTED_EDGE('',*,*,#396,.T.) ;
#571=ORIENTED_EDGE('',*,*,#417,.F.) ;
#572=ORIENTED_EDGE('',*,*,#448,.F.) ;
#575=ORIENTED_EDGE('',*,*,#474,.F.) ;
#576=ORIENTED_EDGE('',*,*,#510,.F.) ;
#545=FACE_BOUND('',#542,.T.) ;
#549=FACE_BOUND('',#546,.T.) ;
#573=FACE_BOUND('',#570,.T.) ;
#577=FACE_BOUND('',#574,.T.) ;
#51=CLOSED_SHELL('Closed Shell',(#91,#117,#148,#179,#205,#236,#267,#293,#324,#355,#381,#403,#443,#460,#500,#522,#550,#578)) ;
#59=VECTOR('Line Direction',#58,1.) ;
#75=VECTOR('Line Direction',#74,1.) ;
#101=VECTOR('Line Direction',#100,1.) ;
#132=VECTOR('Line Direction',#131,1.) ;
#156=VECTOR('Line Direction',#155,1.) ;
#163=VECTOR('Line Direction',#162,1.) ;
#170=VECTOR('Line Direction',#169,1.) ;
#182=VECTOR('Line Direction',#181,1.) ;
#189=VECTOR('Line Direction',#188,1.) ;
#196=VECTOR('Line Direction',#195,1.) ;
#220=VECTOR('Line Direction',#219,1.) ;
#251=VECTOR('Line Direction',#250,1.) ;
#277=VECTOR('Line Direction',#276,1.) ;
#308=VECTOR('Line Direction',#307,1.) ;
#332=VECTOR('Line Direction',#331,1.) ;
#339=VECTOR('Line Direction',#338,1.) ;
#346=VECTOR('Line Direction',#345,1.) ;
#358=VECTOR('Line Direction',#357,1.) ;
#365=VECTOR('Line Direction',#364,1.) ;
#372=VECTOR('Line Direction',#371,1.) ;
#420=VECTOR('Line Direction',#419,1.) ;
#434=VECTOR('Line Direction',#433,1.) ;
#477=VECTOR('Line Direction',#476,1.) ;
#491=VECTOR('Line Direction',#490,1.) ;
#508=VECTOR('Line Direction',#507,1.) ;
#513=VECTOR('Line Direction',#512,1.) ;
#580=ADVANCED_BREP_SHAPE_REPRESENTATION('NONE',(#579),#46) ;
#49=SHAPE_REPRESENTATION(' ',(#48),#46) ;
#91=ADVANCED_FACE('Corps principal',(#90),#56,.T.) ;
#117=ADVANCED_FACE('Corps principal',(#116),#56,.T.) ;
#148=ADVANCED_FACE('Corps principal',(#147),#122,.F.) ;
#179=ADVANCED_FACE('Corps principal',(#178),#153,.F.) ;
#205=ADVANCED_FACE('Corps principal',(#204),#153,.F.) ;
#236=ADVANCED_FACE('Corps principal',(#235),#210,.F.) ;
#267=ADVANCED_FACE('Corps principal',(#266),#241,.T.) ;
#293=ADVANCED_FACE('Corps principal',(#292),#241,.T.) ;
#324=ADVANCED_FACE('Corps principal',(#323),#298,.F.) ;
#355=ADVANCED_FACE('Corps principal',(#354),#329,.F.) ;
#381=ADVANCED_FACE('Corps principal',(#380),#329,.F.) ;
#403=ADVANCED_FACE('Corps principal',(#402),#386,.F.) ;
#443=ADVANCED_FACE('Corps principal',(#442),#408,.F.) ;
#460=ADVANCED_FACE('Corps principal',(#459),#408,.F.) ;
#500=ADVANCED_FACE('Corps principal',(#499),#465,.F.) ;
#522=ADVANCED_FACE('Corps principal',(#521),#505,.T.) ;
#550=ADVANCED_FACE('Corps principal',(#541,#545,#549),#527,.F.) ;
#578=ADVANCED_FACE('Corps principal',(#569,#573,#577),#555,.T.) ;
#4=APPLICATION_PROTOCOL_DEFINITION('international standard','config_control_design',1994,#1) ;
#32=APPROVAL_DATE_TIME(#13,#21) ;
#579=MANIFOLD_SOLID_BREP('Corps principal',#51) ;
#11=CALENDAR_DATE(2019,1,6) ;
#30=CC_DESIGN_APPROVAL(#21,(#16,#6,#14)) ;
#18=CC_DESIGN_DATE_AND_TIME_ASSIGNMENT(#13,#17,(#16)) ;
#29=CC_DESIGN_DATE_AND_TIME_ASSIGNMENT(#13,#28,(#14)) ;
#17=DATE_TIME_ROLE('classification_date') ;
#28=DATE_TIME_ROLE('creation_date') ;
#27=CC_DESIGN_PERSON_AND_ORGANIZATION_ASSIGNMENT(#25,#26,(#16)) ;
#33=CC_DESIGN_PERSON_AND_ORGANIZATION_ASSIGNMENT(#25,#34,(#6)) ;
#35=CC_DESIGN_PERSON_AND_ORGANIZATION_ASSIGNMENT(#25,#36,(#6,#14)) ;
#37=CC_DESIGN_PERSON_AND_ORGANIZATION_ASSIGNMENT(#25,#38,(#5)) ;
#26=PERSON_AND_ORGANIZATION_ROLE('classification_officer') ;
#34=PERSON_AND_ORGANIZATION_ROLE('design_supplier') ;
#36=PERSON_AND_ORGANIZATION_ROLE('creator') ;
#38=PERSON_AND_ORGANIZATION_ROLE('design_owner') ;
#39=CC_DESIGN_SECURITY_CLASSIFICATION(#16,(#6)) ;
#69=CIRCLE('generated circle',#68,8.) ;
#83=CIRCLE('generated circle',#82,8.) ;
#95=CIRCLE('generated circle',#94,8.) ;
#109=CIRCLE('generated circle',#108,8.) ;
#126=CIRCLE('generated circle',#125,23.) ;
#140=CIRCLE('generated circle',#139,23.) ;
#214=CIRCLE('generated circle',#213,23.) ;
#228=CIRCLE('generated circle',#227,23.) ;
#245=CIRCLE('generated circle',#244,8.) ;
#259=CIRCLE('generated circle',#258,8.) ;
#271=CIRCLE('generated circle',#270,8.) ;
#285=CIRCLE('generated circle',#284,8.) ;
#302=CIRCLE('generated circle',#301,23.) ;
#316=CIRCLE('generated circle',#315,23.) ;
#390=CIRCLE('generated circle',#389,23.) ;
#395=CIRCLE('generated circle',#394,23.) ;
#412=CIRCLE('generated circle',#411,3.) ;
#428=CIRCLE('generated circle',#427,3.) ;
#447=CIRCLE('generated circle',#446,3.) ;
#452=CIRCLE('generated circle',#451,3.) ;
#469=CIRCLE('generated circle',#468,3.) ;
#485=CIRCLE('generated circle',#484,3.) ;
#581=SHAPE_REPRESENTATION_RELATIONSHIP(' ',' ',#49,#580) ;
#56=CYLINDRICAL_SURFACE('generated cylinder',#55,8.) ;
#122=CYLINDRICAL_SURFACE('generated cylinder',#121,23.) ;
#210=CYLINDRICAL_SURFACE('generated cylinder',#209,23.) ;
#241=CYLINDRICAL_SURFACE('generated cylinder',#240,8.) ;
#298=CYLINDRICAL_SURFACE('generated cylinder',#297,23.) ;
#386=CYLINDRICAL_SURFACE('generated cylinder',#385,23.) ;
#408=CYLINDRICAL_SURFACE('generated cylinder',#407,3.) ;
#465=CYLINDRICAL_SURFACE('generated cylinder',#464,3.) ;
#3=DESIGN_CONTEXT(' ',#1,'design') ;
#65=EDGE_CURVE('',#62,#64,#60,.T.) ;
#72=EDGE_CURVE('',#62,#71,#69,.T.) ;
#79=EDGE_CURVE('',#71,#78,#76,.T.) ;
#84=EDGE_CURVE('',#64,#78,#83,.T.) ;
#98=EDGE_CURVE('',#71,#97,#95,.T.) ;
#105=EDGE_CURVE('',#97,#104,#102,.T.) ;
#110=EDGE_CURVE('',#78,#104,#109,.T.) ;
#129=EDGE_CURVE('',#97,#128,#126,.F.) ;
#136=EDGE_CURVE('',#128,#135,#133,.T.) ;
#141=EDGE_CURVE('',#104,#135,#140,.F.) ;
#160=EDGE_CURVE('',#128,#159,#157,.F.) ;
#167=EDGE_CURVE('',#159,#166,#164,.T.) ;
#172=EDGE_CURVE('',#135,#166,#171,.F.) ;
#186=EDGE_CURVE('',#159,#185,#183,.T.) ;
#193=EDGE_CURVE('',#185,#192,#190,.T.) ;
#198=EDGE_CURVE('',#166,#192,#197,.T.) ;
#217=EDGE_CURVE('',#185,#216,#214,.F.) ;
#224=EDGE_CURVE('',#216,#223,#221,.T.) ;
#229=EDGE_CURVE('',#192,#223,#228,.F.) ;
#248=EDGE_CURVE('',#216,#247,#245,.T.) ;
#255=EDGE_CURVE('',#247,#254,#252,.T.) ;
#260=EDGE_CURVE('',#223,#254,#259,.T.) ;
#274=EDGE_CURVE('',#247,#273,#271,.T.) ;
#281=EDGE_CURVE('',#273,#280,#278,.T.) ;
#286=EDGE_CURVE('',#254,#280,#285,.T.) ;
#305=EDGE_CURVE('',#273,#304,#302,.F.) ;
#312=EDGE_CURVE('',#304,#311,#309,.T.) ;
#317=EDGE_CURVE('',#280,#311,#316,.F.) ;
#336=EDGE_CURVE('',#304,#335,#333,.F.) ;
#343=EDGE_CURVE('',#335,#342,#340,.T.) ;
#348=EDGE_CURVE('',#311,#342,#347,.F.) ;
#362=EDGE_CURVE('',#335,#361,#359,.T.) ;
#369=EDGE_CURVE('',#361,#368,#366,.T.) ;
#374=EDGE_CURVE('',#342,#368,#373,.T.) ;
#391=EDGE_CURVE('',#361,#62,#390,.F.) ;
#396=EDGE_CURVE('',#368,#64,#395,.F.) ;
#417=EDGE_CURVE('',#414,#416,#412,.T.) ;
#424=EDGE_CURVE('',#423,#416,#421,.T.) ;
#431=EDGE_CURVE('',#430,#423,#428,.T.) ;
#436=EDGE_CURVE('',#430,#414,#435,.T.) ;
#448=EDGE_CURVE('',#416,#414,#447,.T.) ;
#453=EDGE_CURVE('',#423,#430,#452,.T.) ;
#474=EDGE_CURVE('',#471,#473,#469,.T.) ;
#481=EDGE_CURVE('',#480,#473,#478,.T.) ;
#488=EDGE_CURVE('',#487,#480,#485,.T.) ;
#493=EDGE_CURVE('',#487,#471,#492,.T.) ;
#510=EDGE_CURVE('',#473,#471,#509,.F.) ;
#515=EDGE_CURVE('',#480,#487,#514,.F.) ;
#85=EDGE_LOOP('',(#86,#87,#88,#89)) ;
#111=EDGE_LOOP('',(#112,#113,#114,#115)) ;
#142=EDGE_LOOP('',(#143,#144,#145,#146)) ;
#173=EDGE_LOOP('',(#174,#175,#176,#177)) ;
#199=EDGE_LOOP('',(#200,#201,#202,#203)) ;
#230=EDGE_LOOP('',(#231,#232,#233,#234)) ;
#261=EDGE_LOOP('',(#262,#263,#264,#265)) ;
#287=EDGE_LOOP('',(#288,#289,#290,#291)) ;
#318=EDGE_LOOP('',(#319,#320,#321,#322)) ;
#349=EDGE_LOOP('',(#350,#351,#352,#353)) ;
#375=EDGE_LOOP('',(#376,#377,#378,#379)) ;
#397=EDGE_LOOP('',(#398,#399,#400,#401)) ;
#437=EDGE_LOOP('',(#438,#439,#440,#441)) ;
#454=EDGE_LOOP('',(#455,#456,#457,#458)) ;
#494=EDGE_LOOP('',(#495,#496,#497,#498)) ;
#516=EDGE_LOOP('',(#517,#518,#519,#520)) ;
#528=EDGE_LOOP('',(#529,#530,#531,#532,#533,#534,#535,#536,#537,#538,#539,#540)) ;
#542=EDGE_LOOP('',(#543,#544)) ;
#546=EDGE_LOOP('',(#547,#548)) ;
#556=EDGE_LOOP('',(#557,#558,#559,#560,#561,#562,#563,#564,#565,#566,#567,#568)) ;
#570=EDGE_LOOP('',(#571,#572)) ;
#574=EDGE_LOOP('',(#575,#576)) ;
#90=FACE_OUTER_BOUND('',#85,.T.) ;
#116=FACE_OUTER_BOUND('',#111,.T.) ;
#147=FACE_OUTER_BOUND('',#142,.T.) ;
#178=FACE_OUTER_BOUND('',#173,.T.) ;
#204=FACE_OUTER_BOUND('',#199,.T.) ;
#235=FACE_OUTER_BOUND('',#230,.T.) ;
#266=FACE_OUTER_BOUND('',#261,.T.) ;
#292=FACE_OUTER_BOUND('',#287,.T.) ;
#323=FACE_OUTER_BOUND('',#318,.T.) ;
#354=FACE_OUTER_BOUND('',#349,.T.) ;
#380=FACE_OUTER_BOUND('',#375,.T.) ;
#402=FACE_OUTER_BOUND('',#397,.T.) ;
#442=FACE_OUTER_BOUND('',#437,.T.) ;
#459=FACE_OUTER_BOUND('',#454,.T.) ;
#499=FACE_OUTER_BOUND('',#494,.T.) ;
#521=FACE_OUTER_BOUND('',#516,.T.) ;
#541=FACE_OUTER_BOUND('',#528,.T.) ;
#569=FACE_OUTER_BOUND('',#556,.T.) ;
#45=UNCERTAINTY_MEASURE_WITH_UNIT(LENGTH_MEASURE(0.005),#41,'distance_accuracy_value','CONFUSED CURVE UNCERTAINTY') ;
#60=LINE('Line',#57,#59) ;
#76=LINE('Line',#73,#75) ;
#102=LINE('Line',#99,#101) ;
#133=LINE('Line',#130,#132) ;
#157=LINE('Line',#154,#156) ;
#164=LINE('Line',#161,#163) ;
#171=LINE('Line',#168,#170) ;
#183=LINE('Line',#180,#182) ;
#190=LINE('Line',#187,#189) ;
#197=LINE('Line',#194,#196) ;
#221=LINE('Line',#218,#220) ;
#252=LINE('Line',#249,#251) ;
#278=LINE('Line',#275,#277) ;
#309=LINE('Line',#306,#308) ;
#333=LINE('Line',#330,#332) ;
#340=LINE('Line',#337,#339) ;
#347=LINE('Line',#344,#346) ;
#359=LINE('Line',#356,#358) ;
#366=LINE('Line',#363,#365) ;
#373=LINE('Line',#370,#372) ;
#421=LINE('Line',#418,#420) ;
#435=LINE('Line',#432,#434) ;
#478=LINE('Line',#475,#477) ;
#492=LINE('Line',#489,#491) ;
#509=LINE('Line',#506,#508) ;
#514=LINE('Line',#511,#513) ;
#2=MECHANICAL_CONTEXT(' ',#1,'mechanical') ;
#24=PERSONAL_ADDRESS(' ',' ',' ',' ',' ',' ',' ',' ',' ',' ',' ',' ',(#22),' ') ;
#153=PLANE('Plane',#152) ;
#329=PLANE('Plane',#328) ;
#505=PLANE('Plane',#504) ;
#527=PLANE('Plane',#526) ;
#555=PLANE('Plane',#554) ;
#43=PLANE_ANGLE_MEASURE_WITH_UNIT(PLANE_ANGLE_MEASURE(0.0174532925199),#42) ;
#7=PRODUCT_CATEGORY('part',$) ;
#9=PRODUCT_CATEGORY_RELATIONSHIP(' ',' ',#7,#8) ;
#6=PRODUCT_DEFINITION_FORMATION_WITH_SPECIFIED_SOURCE('',' ',#5,.NOT_KNOWN.) ;
#8=PRODUCT_RELATED_PRODUCT_CATEGORY('detail',$,(#5)) ;
#50=SHAPE_DEFINITION_REPRESENTATION(#40,#49) ;
#62=VERTEX_POINT('',#61) ;
#64=VERTEX_POINT('',#63) ;
#71=VERTEX_POINT('',#70) ;
#78=VERTEX_POINT('',#77) ;
#97=VERTEX_POINT('',#96) ;
#104=VERTEX_POINT('',#103) ;
#128=VERTEX_POINT('',#127) ;
#135=VERTEX_POINT('',#134) ;
#159=VERTEX_POINT('',#158) ;
#166=VERTEX_POINT('',#165) ;
#185=VERTEX_POINT('',#184) ;
#192=VERTEX_POINT('',#191) ;
#216=VERTEX_POINT('',#215) ;
#223=VERTEX_POINT('',#222) ;
#247=VERTEX_POINT('',#246) ;
#254=VERTEX_POINT('',#253) ;
#273=VERTEX_POINT('',#272) ;
#280=VERTEX_POINT('',#279) ;
#304=VERTEX_POINT('',#303) ;
#311=VERTEX_POINT('',#310) ;
#335=VERTEX_POINT('',#334) ;
#342=VERTEX_POINT('',#341) ;
#361=VERTEX_POINT('',#360) ;
#368=VERTEX_POINT('',#367) ;
#414=VERTEX_POINT('',#413) ;
#416=VERTEX_POINT('',#415) ;
#423=VERTEX_POINT('',#422) ;
#430=VERTEX_POINT('',#429) ;
#471=VERTEX_POINT('',#470) ;
#473=VERTEX_POINT('',#472) ;
#480=VERTEX_POINT('',#479) ;
#487=VERTEX_POINT('',#486) ;
#41=(LENGTH_UNIT()NAMED_UNIT(*)SI_UNIT(.MILLI.,.METRE.)) ;
#42=(NAMED_UNIT(*)PLANE_ANGLE_UNIT()SI_UNIT($,.RADIAN.)) ;
#44=(NAMED_UNIT(*)SI_UNIT($,.STERADIAN.)SOLID_ANGLE_UNIT()) ;
#46=(GEOMETRIC_REPRESENTATION_CONTEXT(3)GLOBAL_UNCERTAINTY_ASSIGNED_CONTEXT((#45))GLOBAL_UNIT_ASSIGNED_CONTEXT((#41,#42,#44))REPRESENTATION_CONTEXT(' ',' ')) ;
ENDSEC;
END-ISO-10303-21;
