                                                                        S      1
,,,9HAxe court,22HAutodesk Inventor 2019,7Hunknown,32,38,7,99,15,,1.,2, G      1
2HMM,1,0.08,15H20190716.082915,0.01,10000.,5HAeris,,11,0,15H20190711.091G      2
228;                                                                    G      3
     186       1                                                00000000D      1
     186             -89       1       0                               0D      2
     514       2                                                00010000D      3
     514                       1       1                               0D      4
     510       3                                                00010000D      5
     510             -89       1       1                               0D      6
     510       4                                                00010000D      7
     510             -89       1       1                               0D      8
     510       5                                                00010000D      9
     510             -89       1       1                               0D     10
     510       6                                                00010000D     11
     510             -89       1       1                               0D     12
     510       7                                                00010000D     13
     510             -89       1       1                               0D     14
     510       8                                                00010000D     15
     510             -89       1       1                               0D     16
     510       9                                                00010000D     17
     510             -89       1       1                               0D     18
     508      10                                                00010000D     19
     508                       2       1                               0D     20
     508      12                                                00010000D     21
     508                       1       1                               0D     22
     508      13                                                00010000D     23
     508                       2       1                               0D     24
     508      15                                                00010000D     25
     508                       2       1                               0D     26
     508      17                                                00010000D     27
     508                       1       1                               0D     28
     508      18                                                00010000D     29
     508                       2       1                               0D     30
     508      20                                                00010000D     31
     508                       1       1                               0D     32
     508      21                                                00010000D     33
     508                       1       1                               0D     34
     126      22                                                00010000D     35
     126       0               8       0                               0D     36
     126      30                                                00010000D     37
     126       0               5       0                               0D     38
     126      35                                                00010000D     39
     126       0               6       0                               0D     40
     126      41                                                00010000D     41
     126       0               9       0                               0D     42
     126      50                                                00010000D     43
     126       0               5       0                               0D     44
     126      55                                                00010000D     45
     126       0               5       0                               0D     46
     126      60                                                00010000D     47
     126       0               8       0                               0D     48
     126      68                                                00010000D     49
     126       0               9       0                               0D     50
     126      77                                                00010000D     51
     126       0               3       0                               0D     52
     126      80                                                00010000D     53
     126       0              11       0                               0D     54
     126      91                                                00010000D     55
     126       0               3       0                               0D     56
     126      94                                                00010000D     57
     126       0               6       0                               0D     58
     126     100                                                00010000D     59
     126       0               6       0                               0D     60
     126     106                                                00010000D     61
     126       0               2       0                               0D     62
     126     108                                                00010000D     63
     126       0               9       0                               0D     64
     126     117                                                00010000D     65
     126       0               8       0                               0D     66
     128     125                                                00010000D     67
     128       0     -89      20       0                               0D     68
     128     145                                                00010000D     69
     128       0     -89       4       0                               0D     70
     128     149                                                00010000D     71
     128       0     -89      17       0                               0D     72
     128     166                                                00010000D     73
     128       0     -89      16       0                               0D     74
     128     182                                                00010000D     75
     128       0     -89       4       0                               0D     76
     128     186                                                00010000D     77
     128       0     -89      15       0                               0D     78
     128     201                                                00010000D     79
     128       0     -89       4       0                               0D     80
     502     205                                                00010000D     81
     502                       6       1                               0D     82
     504     211                                                00010001D     83
     504                       4       1                               0D     84
     406     215                                                00000000D     85
     406                       1      15                               0D     86
     314     216                                                00000200D     87
     314                       1       0                               0D     88
     314     217                                                00000200D     89
     314                       1       0                               0D     90
186,3,1,0,0,1,85;                                                      1P      1
514,7,5,1,7,1,9,1,11,1,13,1,15,1,17,1;                                 3P      2
510,67,1,1,19;                                                         5P      3
510,69,1,1,21;                                                         7P      4
510,71,1,1,23;                                                         9P      5
510,73,1,1,25;                                                        11P      6
510,75,1,1,27;                                                        13P      7
510,77,1,1,29;                                                        15P      8
510,79,2,1,31,33;                                                     17P      9
508,7,0,83,1,1,0,0,83,2,1,0,0,83,3,1,0,0,83,4,1,0,0,83,5,1,0,0,       19P     10
83,3,0,0,0,83,6,1,0;                                                  19P     11
508,2,0,83,5,0,0,0,83,4,0,0;                                          21P     12
508,7,0,83,7,0,0,0,83,8,0,0,0,83,9,1,0,0,83,1,0,0,0,83,6,0,0,0,       23P     13
83,2,0,0,0,83,9,0,0;                                                  23P     14
508,5,0,83,10,1,0,0,83,11,1,0,0,83,12,1,0,0,83,13,1,0,0,83,11,0,      25P     15
0;                                                                    25P     16
508,1,0,83,10,0,0;                                                    27P     17
508,6,0,83,12,0,0,0,83,13,0,0,0,83,14,1,0,0,83,15,1,0,0,83,16,1,      29P     18
0,0,83,14,0,0;                                                        29P     19
508,2,0,83,7,1,0,0,83,8,1,0;                                          31P     20
508,2,0,83,16,0,0,0,83,15,0,0;                                        33P     21
126,4,2,0,0,0,0,-3.14159265358979,-3.14159265358979,                  35P     22
-3.14159265358979,-1.5707963267949,-1.5707963267949,                  35P     23
-1.83697019872103D-16,-1.83697019872103D-16,                          35P     24
-1.83697019872103D-16,1.,0.707106781186547,1.,0.707106781186547,      35P     25
1.,-0.5,2.5,-7.65404249467096D-16,-0.5,2.5,-2.5,-0.5,                 35P     26
-6.40078975189306D-16,-2.5,-0.5,-2.5,-2.5,-0.5,-2.5,                  35P     27
-6.16297582203915D-32,-3.14159265358979,-1.83697019872103D-16,        35P     28
0.,0.,0.;                                                             35P     29
126,2,2,0,0,0,0,-1.83697019872103D-16,-1.83697019872103D-16,          37P     30
-1.83697019872103D-16,1.5707963267949,1.5707963267949,                37P     31
1.5707963267949,1.,0.707106781186547,1.,-0.5,-2.5,                    37P     32
-6.16297582203915D-32,-0.5,-2.5,2.5,-0.5,-2.76705388141369D-16,       37P     33
2.5,-1.83697019872103D-16,1.5707963267949,0.,0.,0.;                   37P     34
126,2,2,0,0,0,0,-6.16297582203916D-32,-6.16297582203916D-32,          39P     35
-6.16297582203916D-32,1.5707963267949,1.5707963267949,                39P     36
1.5707963267949,1.,0.707106781186547,1.,-0.5,                         39P     37
-2.77555756156289D-17,2.5,-1.5,-1.38777878078145D-16,2.5,-1.5,        39P     38
-1.38777878078145D-16,1.5,-6.16297582203916D-32,1.5707963267949,      39P     39
0.,0.,0.;                                                             39P     40
126,6,2,0,0,0,0,-1.5707963267949,-1.5707963267949,                    41P     41
-1.5707963267949,1.48029736616688D-16,1.48029736616688D-16,           41P     42
1.5707963267949,1.5707963267949,3.14159265358979,                     41P     43
3.14159265358979,3.14159265358979,1.,0.707106781186547,1.,            41P     44
0.707106781186547,1.,0.707106781186548,1.,-1.5,                       41P     45
-2.88147765593589D-16,1.5,-1.5,-1.5,1.5,-1.5,-1.5,                    41P     46
5.35009248831232D-17,-1.5,-1.5,-1.5,-1.5,-5.06171917822351D-16,       41P     47
-1.5,-1.5,1.5,-1.5,-1.5,1.5,-4.59242549680258D-16,                    41P     48
-1.5707963267949,3.14159265358979,0.,0.,0.;                           41P     49
126,2,2,0,0,0,0,-3.14159265358979,-3.14159265358979,                  43P     50
-3.14159265358979,-1.5707963267949,-1.5707963267949,                  43P     51
-1.5707963267949,1.,0.707106781186548,1.,-1.5,1.5,                    43P     52
-9.18485099360515D-17,-1.5,1.5,1.5,-1.5,-2.88147765593589D-16,        43P     53
1.5,-3.14159265358979,-1.5707963267949,0.,0.,0.;                      43P     54
126,2,2,0,0,0,0,1.5707963267949,1.5707963267949,1.5707963267949,      45P     55
3.14159265358979,3.14159265358979,3.14159265358979,1.,                45P     56
0.707106781186547,1.,-0.5,-2.76705388141369D-16,2.5,-0.5,2.5,         45P     57
2.5,-0.5,2.5,-1.53080849893419D-16,1.5707963267949,                   45P     58
3.14159265358979,0.,0.,0.;                                            45P     59
126,4,2,0,0,0,0,1.5707963267949,1.5707963267949,1.5707963267949,      47P     60
3.14159265358979,3.14159265358979,4.71238898038469,                   47P     61
4.71238898038469,4.71238898038469,1.,0.707106781186548,1.,            47P     62
0.707106781186548,1.,-1.23259516440783D-31,2.5,                       47P     63
-1.53080849893419D-16,-1.16349771094728D-31,2.5,2.5,                  47P     64
2.77555756156289D-16,3.33917275402467D-16,2.5,                        47P     65
5.55111512312578D-16,-2.5,2.5,5.55111512312578D-16,-2.5,              47P     66
4.59242549680258D-16,1.5707963267949,4.71238898038469,0.,0.,0.;       47P     67
126,4,2,0,0,0,0,4.71238898038469,4.71238898038469,                    49P     68
4.71238898038469,6.28318530717959,6.28318530717959,                   49P     69
7.85398163397448,7.85398163397448,7.85398163397448,1.,                49P     70
0.707106781186547,1.,0.707106781186547,1.,5.55111512312578D-16,       49P     71
-2.5,4.59242549680258D-16,5.55111512312578D-16,-2.5,-2.5,             49P     72
2.77555756156289D-16,-5.84567823958048D-16,-2.5,                      49P     73
-4.99561662853719D-32,2.5,-2.5,-1.23259516440783D-31,2.5,             49P     74
-7.65404249467096D-16,4.71238898038469,7.85398163397448,0.,0.,        49P     75
0.;                                                                   49P     76
126,1,1,0,0,1,0,-0.3,-0.3,-0.0999999999999999,                        51P     77
-0.0999999999999999,1.,1.,9.71445146547012D-16,-2.5,0.,               51P     78
-0.499999999999999,-2.5,0.,-0.3,-0.0999999999999999,0.,0.,0.;         51P     79
126,8,2,0,1,0,0,-3.14159265358979,-3.14159265358979,                  53P     80
-3.14159265358979,-1.5707963267949,-1.5707963267949,0.,0.,            53P     81
1.5707963267949,1.5707963267949,3.14159265358979,                     53P     82
3.14159265358979,3.14159265358979,1.,0.707106781186548,1.,            53P     83
0.707106781186548,1.,0.707106781186548,1.,0.707106781186548,1.,       53P     84
3.5,0.3,-3.67394039744206D-17,3.5,0.3,-0.3,3.5,                       53P     85
3.97963932247223D-16,-0.3,3.5,-0.299999999999999,-0.3,3.5,            53P     86
-0.299999999999999,0.,3.5,-0.299999999999999,0.3,3.5,                 53P     87
3.97963932247223D-16,0.3,3.5,0.3,0.3,3.5,0.3,                         53P     88
3.67394039744206D-17,-3.14159265358979,3.14159265358979,0.,0.,        53P     89
0.;                                                                   53P     90
126,1,1,0,0,1,0,-0.642824346533225,-0.642824346533225,                55P     91
0.642824346533226,0.642824346533226,1.,1.,3.5,0.3,0.,3.,0.8,0.,       55P     92
-0.642824346533225,0.642824346533226,0.,0.,0.;                        55P     93
126,4,2,0,0,0,0,-3.14159265358979,-3.14159265358979,                  57P     94
-3.14159265358979,-1.5707963267949,-1.5707963267949,0.,0.,0.,1.,      57P     95
0.707106781186547,1.,0.707106781186548,1.,3.,0.8,                     57P     96
9.79717439317882D-17,3.,0.8,0.8,3.,3.11836611037282D-16,0.8,3.,       57P     97
-0.799999999999999,0.8,3.,-0.799999999999999,0.,                      57P     98
-3.14159265358979,0.,0.,0.,0.;                                        57P     99
126,4,2,0,0,0,0,0.,0.,0.,1.5707963267949,1.5707963267949,             59P    100
3.14159265358979,3.14159265358979,3.14159265358979,1.,                59P    101
0.707106781186548,1.,0.707106781186547,1.,3.,-0.799999999999999,      59P    102
0.,3.,-0.799999999999999,-0.8,3.,3.11836611037282D-16,-0.8,3.,        59P    103
0.8,-0.8,3.,0.8,-9.79717439317882D-17,0.,3.14159265358979,0.,0.,      59P    104
0.;                                                                   59P    105
126,1,1,0,0,1,0,-1.5625,-1.5625,2.1875,2.1875,1.,1.,3.,               61P    106
-0.799999999999999,0.,0.,-0.8,0.,-1.5625,2.1875,0.,0.,0.;             61P    107
126,4,2,0,0,0,0,4.71238898038469,4.71238898038469,                    63P    108
4.71238898038469,6.28318530717959,6.28318530717959,                   63P    109
7.85398163397448,7.85398163397448,7.85398163397448,1.,                63P    110
0.707106781186547,1.,0.707106781186547,1.,8.88178419700125D-17,       63P    111
-0.8,1.46957615897682D-16,8.88178419700125D-17,-0.8,-0.8,             63P    112
2.17540971751503D-32,-1.68187912247948D-16,-0.8,                      63P    113
-8.88178419700125D-17,0.8,-0.8,-8.88178419700125D-17,0.8,             63P    114
-2.44929359829471D-16,4.71238898038469,7.85398163397448,0.,0.,        63P    115
0.;                                                                   63P    116
126,4,2,0,0,0,0,1.5707963267949,1.5707963267949,1.5707963267949,      65P    117
3.14159265358979,3.14159265358979,4.71238898038469,                   65P    118
4.71238898038469,4.71238898038469,1.,0.707106781186548,1.,            65P    119
0.707106781186548,1.,-8.88178419700125D-17,0.8,                       65P    120
-4.89858719658941D-17,-8.88178419700125D-17,0.8,0.8,                  65P    121
-1.08770485875751D-32,1.25727319547417D-16,0.8,                       65P    122
8.88178419700125D-17,-0.8,0.8,8.88178419700125D-17,-0.8,              65P    123
1.46957615897682D-16,1.5707963267949,4.71238898038469,0.,0.,0.;       65P    124
128,2,8,2,2,0,1,0,0,1,-1.5707963267949,-1.5707963267949,              67P    125
-1.5707963267949,6.16297582203916D-32,6.16297582203916D-32,           67P    126
6.16297582203916D-32,-3.14159265358979,-3.14159265358979,             67P    127
-3.14159265358979,-1.5707963267949,-1.5707963267949,0.,0.,            67P    128
1.5707963267949,1.5707963267949,3.14159265358979,                     67P    129
3.14159265358979,3.14159265358979,1.,0.707106781186547,1.,            67P    130
0.707106781186548,0.5,0.707106781186548,1.,0.707106781186547,1.,      67P    131
0.707106781186548,0.5,0.707106781186548,1.,0.707106781186547,1.,      67P    132
0.707106781186548,0.5,0.707106781186548,1.,0.707106781186547,1.,      67P    133
0.707106781186548,0.5,0.707106781186548,1.,0.707106781186547,1.,      67P    134
-0.5,-2.77555756156289D-17,2.5,-1.5,-1.38777878078145D-16,2.5,        67P    135
-1.5,-1.38777878078145D-16,1.5,-0.5,-2.5,2.5,-1.5,-2.5,2.5,-1.5,      67P    136
-1.5,1.5,-0.5,-2.5,0.,-1.5,-2.5,0.,-1.5,-1.5,0.,-0.5,-2.5,-2.5,       67P    137
-1.5,-2.5,-2.5,-1.5,-1.5,-1.5,-0.5,-2.77555756156289D-17,-2.5,        67P    138
-1.5,-1.38777878078145D-16,-2.5,-1.5,-1.38777878078145D-16,-1.5,      67P    139
-0.5,2.5,-2.5,-1.5,2.5,-2.5,-1.5,1.5,-1.5,-0.5,2.5,0.,-1.5,2.5,       67P    140
0.,-1.5,1.5,0.,-0.5,2.5,2.5,-1.5,2.5,2.5,-1.5,1.5,1.5,-0.5,           67P    141
-2.77555756156289D-17,2.5,-1.5,-1.38777878078145D-16,2.5,-1.5,        67P    142
-1.38777878078145D-16,1.5,-1.5707963267949,6.16297582203916D-32,      67P    143
-3.14159265358979,3.14159265358979;                                   67P    144
128,1,1,1,1,0,0,1,0,0,-0.151,-0.151,0.151,0.151,-0.401,-0.401,        69P    145
-0.0989999999999999,-0.0989999999999999,1.,1.,1.,1.,-1.5,-1.51,       69P    146
-1.51,-1.5,-1.51,1.51,-1.5,1.51,-1.51,-1.5,1.51,1.51,-0.151,          69P    147
0.151,-0.401,-0.0989999999999999;                                     69P    148
128,1,8,1,2,0,1,0,0,1,0.0999999999999999,0.0999999999999999,0.3,      71P    149
0.3,-3.14159265358979,-3.14159265358979,-3.14159265358979,            71P    150
-1.5707963267949,-1.5707963267949,0.,0.,1.5707963267949,              71P    151
1.5707963267949,3.14159265358979,3.14159265358979,                    71P    152
3.14159265358979,1.,1.,0.707106781186548,0.707106781186548,1.,        71P    153
1.,0.707106781186548,0.707106781186548,1.,1.,0.707106781186548,       71P    154
0.707106781186548,1.,1.,0.707106781186548,0.707106781186548,1.,       71P    155
1.,9.71445146547012D-16,-2.5,0.,-0.499999999999999,-2.5,0.,           71P    156
9.71445146547012D-16,-2.5,-2.5,-0.499999999999999,-2.5,-2.5,          71P    157
6.93889390390723D-16,2.7755575615629D-17,-2.5,-0.5,                   71P    158
-2.77555756156289D-17,-2.5,4.16333634234434D-16,2.5,-2.5,-0.5,        71P    159
2.5,-2.5,4.16333634234434D-16,2.5,0.,-0.5,2.5,0.,                     71P    160
4.16333634234434D-16,2.5,2.5,-0.5,2.5,2.5,6.93889390390723D-16,       71P    161
2.7755575615629D-17,2.5,-0.5,-2.77555756156289D-17,2.5,               71P    162
9.71445146547012D-16,-2.5,2.5,-0.499999999999999,-2.5,2.5,            71P    163
9.71445146547012D-16,-2.5,0.,-0.499999999999999,-2.5,0.,              71P    164
0.0999999999999999,0.3,-3.14159265358979,3.14159265358979;            71P    165
128,1,8,1,2,0,1,0,0,1,-0.642824346533226,-0.642824346533226,          73P    166
0.642824346533225,0.642824346533225,-3.14159265358979,                73P    167
-3.14159265358979,-3.14159265358979,-1.5707963267949,                 73P    168
-1.5707963267949,0.,0.,1.5707963267949,1.5707963267949,               73P    169
3.14159265358979,3.14159265358979,3.14159265358979,1.,1.,             73P    170
0.707106781186548,0.707106781186548,1.,1.,0.707106781186548,          73P    171
0.707106781186548,1.,1.,0.707106781186548,0.707106781186548,1.,       73P    172
1.,0.707106781186548,0.707106781186548,1.,1.,3.5,0.3,0.,3.,0.8,       73P    173
0.,3.5,0.3,0.3,3.,0.8,0.8,3.5,4.16333634234434D-16,0.3,3.,            73P    174
3.60822483003176D-16,0.8,3.5,-0.299999999999999,0.3,3.,               73P    175
-0.799999999999999,0.8,3.5,-0.299999999999999,0.,3.,                  73P    176
-0.799999999999999,0.,3.5,-0.299999999999999,-0.3,3.,                 73P    177
-0.799999999999999,-0.8,3.5,4.16333634234434D-16,-0.3,3.,             73P    178
3.60822483003176D-16,-0.8,3.5,0.3,-0.3,3.,0.8,-0.8,3.5,0.3,0.,        73P    179
3.,0.8,0.,-0.642824346533226,0.642824346533225,                       73P    180
-3.14159265358979,3.14159265358979;                                   73P    181
128,1,1,1,1,0,0,1,0,0,-0.031,-0.031,0.031,0.031,-0.031,-0.031,        75P    182
0.031,0.031,1.,1.,1.,1.,3.5,-0.309999999999999,0.31,3.5,              75P    183
-0.309999999999999,-0.31,3.5,0.31,0.31,3.5,0.31,-0.31,-0.031,         75P    184
0.031,-0.031,0.031;                                                   75P    185
128,1,8,1,2,0,1,0,0,1,-2.1875,-2.1875,1.5625,1.5625,                  77P    186
-3.14159265358979,-3.14159265358979,-3.14159265358979,                77P    187
-1.5707963267949,-1.5707963267949,0.,0.,1.5707963267949,              77P    188
1.5707963267949,3.14159265358979,3.14159265358979,                    77P    189
3.14159265358979,1.,1.,0.707106781186548,0.707106781186548,1.,        77P    190
1.,0.707106781186548,0.707106781186548,1.,1.,0.707106781186548,       77P    191
0.707106781186548,1.,1.,0.707106781186548,0.707106781186548,1.,       77P    192
1.,3.,-0.799999999999999,0.,0.,-0.8,0.,3.,-0.799999999999999,         77P    193
-0.799999999999999,0.,-0.8,-0.8,3.,3.60822483003176D-16,-0.8,0.,      77P    194
2.77555756156289D-17,-0.8,3.,0.8,-0.799999999999999,0.,0.8,-0.8,      77P    195
3.,0.8,0.,0.,0.8,0.,3.,0.8,0.799999999999999,0.,0.8,0.8,3.,           77P    196
3.60822483003176D-16,0.8,0.,2.77555756156289D-17,0.8,3.,              77P    197
-0.799999999999999,0.799999999999999,0.,-0.8,0.8,3.,                  77P    198
-0.799999999999999,0.,0.,-0.8,0.,-2.1875,1.5625,                      77P    199
-3.14159265358979,3.14159265358979;                                   77P    200
128,1,1,1,1,0,0,1,0,0,-0.251,-0.251,0.251,0.251,-0.331,-0.331,        79P    201
0.171,0.171,1.,1.,1.,1.,3.67483821150927D-16,-2.51,2.51,              79P    202
3.67483821150927D-16,-2.51,-2.51,-1.89848137210902D-16,2.51,          79P    203
2.51,-1.89848137210902D-16,2.51,-2.51,-0.251,0.251,-0.331,0.171;      79P    204
502,12,-0.5,2.5,-7.65404249467096D-16,-0.499999999999999,-2.5,        81P    205
0.,-0.5,-2.77555756156289D-17,2.5,-1.5,-1.38777878078145D-16,         81P    206
1.5,-1.5,1.5,-9.18485099360515D-17,4.62223186652945D-33,2.5,0.,       81P    207
9.71445146547012D-16,-2.5,0.,3.5,0.3,-3.67394039744206D-17,3.,        81P    208
0.8,9.79717439317882D-17,3.,-0.799999999999999,0.,0.,-0.8,0.,0.,      81P    209
0.8,0.;                                                               81P    210
504,16,35,81,1,81,2,37,81,2,81,3,39,81,3,81,4,41,81,4,81,5,43,        83P    211
81,5,81,4,45,81,3,81,1,47,81,6,81,7,49,81,7,81,6,51,81,7,81,2,        83P    212
53,81,8,81,8,55,81,8,81,9,57,81,9,81,10,59,81,10,81,9,61,81,10,       83P    213
81,11,63,81,11,81,12,65,81,12,81,11;                                  83P    214
406,1,7HSolide1;                                                      85P    215
314,74.5098039215686,73.7254901960784,72.9411764705882,;              87P    216
314,100.,94.5098039215686,69.4117647058823,;                          89P    217
S      1G      3D     90P    217                                        T      1
