ISO-10303-21;
HEADER;
/* Generated by software containing ST-Developer
 * from STEP Tools, Inc. (www.steptools.com) 
 */

FILE_DESCRIPTION(
/* description */ (''),
/* implementation_level */ '2;1');

FILE_NAME(
/* name */ 
'C:\\Users\\Aeris\\Desktop\\XAVIER PICANON\\cao pers\\Sacoche magic\\M
\X\E9dias\\Transfert de fichiers\\3D Step\\Tube (x3).stp',
/* time_stamp */ '2019-07-15T17:09:33+02:00',
/* author */ ('Aeris'),
/* organization */ (''),
/* preprocessor_version */ 'ST-DEVELOPER v17',
/* originating_system */ 'Autodesk Inventor 2019',
/* authorisation */ '');

FILE_SCHEMA (('AUTOMOTIVE_DESIGN { 1 0 10303 214 3 1 1 }'));
ENDSEC;

DATA;
#10=MECHANICAL_DESIGN_GEOMETRIC_PRESENTATION_REPRESENTATION('',(#14,#15),
#436);
#11=SHAPE_REPRESENTATION_RELATIONSHIP('SRR','None',#443,#12);
#12=ADVANCED_BREP_SHAPE_REPRESENTATION('',(#13),#435);
#13=MANIFOLD_SOLID_BREP('Solide1',#192);
#14=STYLED_ITEM('',(#454),#191);
#15=STYLED_ITEM('',(#453),#13);
#16=PLANE('',#217);
#17=PLANE('',#219);
#18=PLANE('',#221);
#19=PLANE('',#223);
#20=PLANE('',#227);
#21=FACE_BOUND('',#51,.T.);
#22=FACE_BOUND('',#52,.T.);
#23=FACE_BOUND('',#54,.T.);
#24=FACE_BOUND('',#58,.T.);
#25=FACE_BOUND('',#62,.T.);
#26=FACE_BOUND('',#64,.T.);
#27=FACE_BOUND('',#65,.T.);
#28=B_SPLINE_CURVE_WITH_KNOTS('',3,(#290,#291,#292,#293,#294,#295,#296,
#297,#298,#299,#300,#301,#302,#303,#304,#305,#306,#307),.UNSPECIFIED.,.F.,
 .F.,(4,2,2,2,2,2,2,2,4),(0.,0.0288686400661105,0.057737280132221,0.086527222881676,
0.115317165631131,0.144107108380586,0.172897051130041,0.201765691196152,
0.230634331262262),.UNSPECIFIED.);
#29=B_SPLINE_CURVE_WITH_KNOTS('',3,(#308,#309,#310,#311,#312,#313,#314,
#315,#316,#317,#318,#319,#320,#321,#322,#323,#324,#325),.UNSPECIFIED.,.F.,
 .F.,(4,2,2,2,2,2,2,2,4),(0.230634331262262,0.259502971328373,0.288371611394483,
0.317161554143938,0.345951496893393,0.374741439642848,0.403531382392303,
0.432400022458414,0.461268662524524),.UNSPECIFIED.);
#30=B_SPLINE_CURVE_WITH_KNOTS('',3,(#328,#329,#330,#331,#332,#333,#334,
#335,#336,#337,#338,#339,#340,#341,#342,#343,#344,#345),.UNSPECIFIED.,.F.,
 .F.,(4,2,2,2,2,2,2,2,4),(0.,0.0288686400661105,0.057737280132221,0.086527222881676,
0.115317165631131,0.144107108380586,0.172897051130041,0.201765691196152,
0.230634331262262),.UNSPECIFIED.);
#31=B_SPLINE_CURVE_WITH_KNOTS('',3,(#346,#347,#348,#349,#350,#351,#352,
#353,#354,#355,#356,#357,#358,#359,#360,#361,#362,#363),.UNSPECIFIED.,.F.,
 .F.,(4,2,2,2,2,2,2,2,4),(0.230634331262262,0.259502971328372,0.288371611394483,
0.317161554143938,0.345951496893393,0.374741439642848,0.403531382392303,
0.432400022458414,0.461268662524524),.UNSPECIFIED.);
#32=B_SPLINE_CURVE_WITH_KNOTS('',3,(#386,#387,#388,#389,#390,#391,#392,
#393,#394,#395),.UNSPECIFIED.,.F.,.F.,(4,2,2,2,4),(0.114226345685535,0.142771994052612,
0.171317642419688,0.199885166895379,0.228452691371071),.UNSPECIFIED.);
#33=B_SPLINE_CURVE_WITH_KNOTS('',3,(#397,#398,#399,#400,#401,#402,#403,
#404,#405,#406,#407,#408,#409,#410,#411,#412,#413,#414,#415),
 .UNSPECIFIED.,.F.,.F.,(4,2,2,2,3,2,2,2,4),(0.342679037056606,0.371224685423682,
0.399770333790758,0.42833785826645,0.456905382742141,0.485472907217832,
0.514040431693524,0.5425860800606,0.571131728427676),.UNSPECIFIED.);
#34=B_SPLINE_CURVE_WITH_KNOTS('',3,(#416,#417,#418,#419,#420,#421,#422,
#423,#424,#425),.UNSPECIFIED.,.F.,.F.,(4,2,2,2,4),(0.228452691371071,0.257020215846762,
0.285587740322453,0.31413338868953,0.342679037056606),.UNSPECIFIED.);
#35=CYLINDRICAL_SURFACE('',#215,1.5);
#36=CYLINDRICAL_SURFACE('',#225,0.75);
#37=CYLINDRICAL_SURFACE('',#226,0.75);
#38=CYLINDRICAL_SURFACE('',#229,2.);
#39=FACE_OUTER_BOUND('',#49,.T.);
#40=FACE_OUTER_BOUND('',#50,.T.);
#41=FACE_OUTER_BOUND('',#53,.T.);
#42=FACE_OUTER_BOUND('',#55,.T.);
#43=FACE_OUTER_BOUND('',#56,.T.);
#44=FACE_OUTER_BOUND('',#57,.T.);
#45=FACE_OUTER_BOUND('',#59,.T.);
#46=FACE_OUTER_BOUND('',#60,.T.);
#47=FACE_OUTER_BOUND('',#61,.T.);
#48=FACE_OUTER_BOUND('',#63,.T.);
#49=EDGE_LOOP('',(#133,#134,#135,#136));
#50=EDGE_LOOP('',(#137,#138,#139,#140));
#51=EDGE_LOOP('',(#141,#142));
#52=EDGE_LOOP('',(#143,#144));
#53=EDGE_LOOP('',(#145));
#54=EDGE_LOOP('',(#146));
#55=EDGE_LOOP('',(#147,#148));
#56=EDGE_LOOP('',(#149,#150));
#57=EDGE_LOOP('',(#151,#152,#153,#154));
#58=EDGE_LOOP('',(#155));
#59=EDGE_LOOP('',(#156,#157,#158,#159,#160,#161,#162));
#60=EDGE_LOOP('',(#163,#164,#165,#166,#167));
#61=EDGE_LOOP('',(#168));
#62=EDGE_LOOP('',(#169));
#63=EDGE_LOOP('',(#170,#171,#172,#173));
#64=EDGE_LOOP('',(#174,#175,#176,#177));
#65=EDGE_LOOP('',(#178,#179,#180));
#66=LINE('',#282,#75);
#67=LINE('',#287,#76);
#68=LINE('',#371,#77);
#69=LINE('',#376,#78);
#70=LINE('',#378,#79);
#71=LINE('',#379,#80);
#72=LINE('',#384,#81);
#73=LINE('',#427,#82);
#74=LINE('',#432,#83);
#75=VECTOR('',#236,1.55);
#76=VECTOR('',#243,1.5);
#77=VECTOR('',#252,10.);
#78=VECTOR('',#257,10.);
#79=VECTOR('',#260,10.);
#80=VECTOR('',#261,10.);
#81=VECTOR('',#266,0.75);
#82=VECTOR('',#269,0.75);
#83=VECTOR('',#276,2.);
#84=CIRCLE('',#213,1.6);
#85=CIRCLE('',#214,1.5);
#86=CIRCLE('',#216,1.5);
#87=CIRCLE('',#218,2.);
#88=CIRCLE('',#220,2.);
#89=CIRCLE('',#222,2.);
#90=CIRCLE('',#224,0.75);
#91=CIRCLE('',#228,2.);
#92=VERTEX_POINT('',#279);
#93=VERTEX_POINT('',#281);
#94=VERTEX_POINT('',#285);
#95=VERTEX_POINT('',#288);
#96=VERTEX_POINT('',#289);
#97=VERTEX_POINT('',#326);
#98=VERTEX_POINT('',#327);
#99=VERTEX_POINT('',#365);
#100=VERTEX_POINT('',#368);
#101=VERTEX_POINT('',#369);
#102=VERTEX_POINT('',#373);
#103=VERTEX_POINT('',#374);
#104=VERTEX_POINT('',#380);
#105=VERTEX_POINT('',#383);
#106=VERTEX_POINT('',#385);
#107=VERTEX_POINT('',#396);
#108=VERTEX_POINT('',#429);
#109=EDGE_CURVE('',#92,#92,#84,.T.);
#110=EDGE_CURVE('',#92,#93,#66,.T.);
#111=EDGE_CURVE('',#93,#93,#85,.T.);
#112=EDGE_CURVE('',#94,#94,#86,.T.);
#113=EDGE_CURVE('',#94,#93,#67,.T.);
#114=EDGE_CURVE('',#95,#96,#28,.T.);
#115=EDGE_CURVE('',#96,#95,#29,.T.);
#116=EDGE_CURVE('',#97,#98,#30,.T.);
#117=EDGE_CURVE('',#98,#97,#31,.T.);
#118=EDGE_CURVE('',#99,#99,#87,.T.);
#119=EDGE_CURVE('',#100,#101,#88,.T.);
#120=EDGE_CURVE('',#101,#100,#68,.T.);
#121=EDGE_CURVE('',#102,#103,#89,.T.);
#122=EDGE_CURVE('',#102,#103,#69,.T.);
#123=EDGE_CURVE('',#101,#102,#70,.T.);
#124=EDGE_CURVE('',#103,#100,#71,.T.);
#125=EDGE_CURVE('',#104,#104,#90,.T.);
#126=EDGE_CURVE('',#96,#105,#72,.T.);
#127=EDGE_CURVE('',#106,#105,#32,.T.);
#128=EDGE_CURVE('',#107,#106,#33,.T.);
#129=EDGE_CURVE('',#105,#107,#34,.T.);
#130=EDGE_CURVE('',#104,#98,#73,.T.);
#131=EDGE_CURVE('',#108,#108,#91,.T.);
#132=EDGE_CURVE('',#99,#108,#74,.T.);
#133=ORIENTED_EDGE('',*,*,#109,.T.);
#134=ORIENTED_EDGE('',*,*,#110,.T.);
#135=ORIENTED_EDGE('',*,*,#111,.T.);
#136=ORIENTED_EDGE('',*,*,#110,.F.);
#137=ORIENTED_EDGE('',*,*,#112,.F.);
#138=ORIENTED_EDGE('',*,*,#113,.T.);
#139=ORIENTED_EDGE('',*,*,#111,.F.);
#140=ORIENTED_EDGE('',*,*,#113,.F.);
#141=ORIENTED_EDGE('',*,*,#114,.T.);
#142=ORIENTED_EDGE('',*,*,#115,.T.);
#143=ORIENTED_EDGE('',*,*,#116,.T.);
#144=ORIENTED_EDGE('',*,*,#117,.T.);
#145=ORIENTED_EDGE('',*,*,#118,.T.);
#146=ORIENTED_EDGE('',*,*,#109,.F.);
#147=ORIENTED_EDGE('',*,*,#119,.F.);
#148=ORIENTED_EDGE('',*,*,#120,.F.);
#149=ORIENTED_EDGE('',*,*,#121,.F.);
#150=ORIENTED_EDGE('',*,*,#122,.T.);
#151=ORIENTED_EDGE('',*,*,#123,.F.);
#152=ORIENTED_EDGE('',*,*,#120,.T.);
#153=ORIENTED_EDGE('',*,*,#124,.F.);
#154=ORIENTED_EDGE('',*,*,#122,.F.);
#155=ORIENTED_EDGE('',*,*,#125,.F.);
#156=ORIENTED_EDGE('',*,*,#114,.F.);
#157=ORIENTED_EDGE('',*,*,#115,.F.);
#158=ORIENTED_EDGE('',*,*,#126,.T.);
#159=ORIENTED_EDGE('',*,*,#127,.F.);
#160=ORIENTED_EDGE('',*,*,#128,.F.);
#161=ORIENTED_EDGE('',*,*,#129,.F.);
#162=ORIENTED_EDGE('',*,*,#126,.F.);
#163=ORIENTED_EDGE('',*,*,#125,.T.);
#164=ORIENTED_EDGE('',*,*,#130,.T.);
#165=ORIENTED_EDGE('',*,*,#116,.F.);
#166=ORIENTED_EDGE('',*,*,#117,.F.);
#167=ORIENTED_EDGE('',*,*,#130,.F.);
#168=ORIENTED_EDGE('',*,*,#131,.T.);
#169=ORIENTED_EDGE('',*,*,#112,.T.);
#170=ORIENTED_EDGE('',*,*,#118,.F.);
#171=ORIENTED_EDGE('',*,*,#132,.T.);
#172=ORIENTED_EDGE('',*,*,#131,.F.);
#173=ORIENTED_EDGE('',*,*,#132,.F.);
#174=ORIENTED_EDGE('',*,*,#121,.T.);
#175=ORIENTED_EDGE('',*,*,#124,.T.);
#176=ORIENTED_EDGE('',*,*,#119,.T.);
#177=ORIENTED_EDGE('',*,*,#123,.T.);
#178=ORIENTED_EDGE('',*,*,#127,.T.);
#179=ORIENTED_EDGE('',*,*,#129,.T.);
#180=ORIENTED_EDGE('',*,*,#128,.T.);
#181=CONICAL_SURFACE('',#212,1.55,0.785398163397448);
#182=ADVANCED_FACE('',(#39),#181,.F.);
#183=ADVANCED_FACE('',(#40,#21,#22),#35,.F.);
#184=ADVANCED_FACE('',(#41,#23),#16,.T.);
#185=ADVANCED_FACE('',(#42),#17,.F.);
#186=ADVANCED_FACE('',(#43),#18,.F.);
#187=ADVANCED_FACE('',(#44,#24),#19,.F.);
#188=ADVANCED_FACE('',(#45),#36,.F.);
#189=ADVANCED_FACE('',(#46),#37,.F.);
#190=ADVANCED_FACE('',(#47,#25),#20,.F.);
#191=ADVANCED_FACE('',(#48,#26,#27),#38,.T.);
#192=CLOSED_SHELL('',(#182,#183,#184,#185,#186,#187,#188,#189,#190,#191));
#193=DERIVED_UNIT_ELEMENT(#195,1.);
#194=DERIVED_UNIT_ELEMENT(#438,3.);
#195=(
MASS_UNIT()
NAMED_UNIT(*)
SI_UNIT($,.GRAM.)
);
#196=DERIVED_UNIT((#193,#194));
#197=MEASURE_REPRESENTATION_ITEM('density measure',
POSITIVE_RATIO_MEASURE(1.),#196);
#198=PROPERTY_DEFINITION_REPRESENTATION(#203,#200);
#199=PROPERTY_DEFINITION_REPRESENTATION(#204,#201);
#200=REPRESENTATION('material name',(#202),#435);
#201=REPRESENTATION('density',(#197),#435);
#202=DESCRIPTIVE_REPRESENTATION_ITEM('G\X\E9n\X\E9rique','G\X\E9n\X\E9
rique');
#203=PROPERTY_DEFINITION('material property','material name',#445);
#204=PROPERTY_DEFINITION('material property','density of part',#445);
#205=DATE_TIME_ROLE('creation_date');
#206=APPLIED_DATE_AND_TIME_ASSIGNMENT(#207,#205,(#445));
#207=DATE_AND_TIME(#208,#209);
#208=CALENDAR_DATE(2019,11,7);
#209=LOCAL_TIME(8,49,32.,#210);
#210=COORDINATED_UNIVERSAL_TIME_OFFSET(0,0,.BEHIND.);
#211=AXIS2_PLACEMENT_3D('placement',#277,#230,#231);
#212=AXIS2_PLACEMENT_3D('',#278,#232,#233);
#213=AXIS2_PLACEMENT_3D('',#280,#234,#235);
#214=AXIS2_PLACEMENT_3D('',#283,#237,#238);
#215=AXIS2_PLACEMENT_3D('',#284,#239,#240);
#216=AXIS2_PLACEMENT_3D('',#286,#241,#242);
#217=AXIS2_PLACEMENT_3D('',#364,#244,#245);
#218=AXIS2_PLACEMENT_3D('',#366,#246,#247);
#219=AXIS2_PLACEMENT_3D('',#367,#248,#249);
#220=AXIS2_PLACEMENT_3D('',#370,#250,#251);
#221=AXIS2_PLACEMENT_3D('',#372,#253,#254);
#222=AXIS2_PLACEMENT_3D('',#375,#255,#256);
#223=AXIS2_PLACEMENT_3D('',#377,#258,#259);
#224=AXIS2_PLACEMENT_3D('',#381,#262,#263);
#225=AXIS2_PLACEMENT_3D('',#382,#264,#265);
#226=AXIS2_PLACEMENT_3D('',#426,#267,#268);
#227=AXIS2_PLACEMENT_3D('',#428,#270,#271);
#228=AXIS2_PLACEMENT_3D('',#430,#272,#273);
#229=AXIS2_PLACEMENT_3D('',#431,#274,#275);
#230=DIRECTION('axis',(0.,0.,1.));
#231=DIRECTION('refdir',(1.,0.,0.));
#232=DIRECTION('center_axis',(0.,0.,1.));
#233=DIRECTION('ref_axis',(-1.,0.,0.));
#234=DIRECTION('center_axis',(0.,0.,1.));
#235=DIRECTION('ref_axis',(-1.,0.,0.));
#236=DIRECTION('',(-0.707106781186547,-8.65956056235493E-17,-0.707106781186547));
#237=DIRECTION('center_axis',(0.,0.,-1.));
#238=DIRECTION('ref_axis',(-1.,0.,0.));
#239=DIRECTION('center_axis',(0.,0.,1.));
#240=DIRECTION('ref_axis',(-1.,0.,0.));
#241=DIRECTION('center_axis',(0.,0.,1.));
#242=DIRECTION('ref_axis',(-1.,0.,0.));
#243=DIRECTION('',(0.,0.,1.));
#244=DIRECTION('center_axis',(0.,0.,1.));
#245=DIRECTION('ref_axis',(1.,0.,0.));
#246=DIRECTION('center_axis',(0.,0.,1.));
#247=DIRECTION('ref_axis',(-1.,0.,0.));
#248=DIRECTION('center_axis',(0.,0.,-1.));
#249=DIRECTION('ref_axis',(0.,-1.,0.));
#250=DIRECTION('center_axis',(0.,0.,-1.));
#251=DIRECTION('ref_axis',(-1.,0.,0.));
#252=DIRECTION('',(-1.,0.,0.));
#253=DIRECTION('center_axis',(0.,0.,1.));
#254=DIRECTION('ref_axis',(0.,1.,0.));
#255=DIRECTION('center_axis',(0.,0.,1.));
#256=DIRECTION('ref_axis',(-1.,0.,0.));
#257=DIRECTION('',(-1.,0.,0.));
#258=DIRECTION('center_axis',(0.,-1.,-1.85037170770859E-16));
#259=DIRECTION('ref_axis',(0.,-1.85037170770859E-16,1.));
#260=DIRECTION('',(0.,0.,1.));
#261=DIRECTION('',(0.,0.,-1.));
#262=DIRECTION('center_axis',(0.,1.,1.85037170770859E-16));
#263=DIRECTION('ref_axis',(-1.,0.,0.));
#264=DIRECTION('center_axis',(0.,1.,0.));
#265=DIRECTION('ref_axis',(-1.,0.,0.));
#266=DIRECTION('',(0.,-1.,0.));
#267=DIRECTION('center_axis',(0.,1.,0.));
#268=DIRECTION('ref_axis',(-1.,0.,0.));
#269=DIRECTION('',(0.,-1.,0.));
#270=DIRECTION('center_axis',(0.,0.,1.));
#271=DIRECTION('ref_axis',(1.,0.,0.));
#272=DIRECTION('center_axis',(0.,0.,-1.));
#273=DIRECTION('ref_axis',(-1.,0.,0.));
#274=DIRECTION('center_axis',(0.,0.,1.));
#275=DIRECTION('ref_axis',(-1.,0.,0.));
#276=DIRECTION('',(0.,0.,-1.));
#277=CARTESIAN_POINT('',(0.,0.,0.));
#278=CARTESIAN_POINT('Origin',(0.,0.,3.875));
#279=CARTESIAN_POINT('',(1.6,1.95943487863577E-16,3.925));
#280=CARTESIAN_POINT('Origin',(0.,0.,3.925));
#281=CARTESIAN_POINT('',(1.5,-1.83697019872103E-16,3.825));
#282=CARTESIAN_POINT('',(1.55,1.8982025386784E-16,3.875));
#283=CARTESIAN_POINT('Origin',(0.,0.,3.825));
#284=CARTESIAN_POINT('Origin',(0.,0.,0.));
#285=CARTESIAN_POINT('',(1.5,1.83697019872103E-16,-3.925));
#286=CARTESIAN_POINT('Origin',(0.,0.,-3.925));
#287=CARTESIAN_POINT('',(1.5,1.83697019872103E-16,0.));
#288=CARTESIAN_POINT('',(-0.75,-1.29903810567666,0.));
#289=CARTESIAN_POINT('',(0.75,-1.29903810567666,-9.18485099360515E-17));
#290=CARTESIAN_POINT('Ctrl Pts',(-0.75,-1.29903810567666,0.));
#291=CARTESIAN_POINT('Ctrl Pts',(-0.75,-1.29903810567666,-0.0962288002203683));
#292=CARTESIAN_POINT('Ctrl Pts',(-0.73041418835757,-1.3108690769647,-0.197353950947464));
#293=CARTESIAN_POINT('Ctrl Pts',(-0.65342153230217,-1.35089700934551,-0.381436769630866));
#294=CARTESIAN_POINT('Ctrl Pts',(-0.596066871098276,-1.37827535066163,-0.464593300681546));
#295=CARTESIAN_POINT('Ctrl Pts',(-0.464772502354697,-1.42789995755287,-0.595887669425124));
#296=CARTESIAN_POINT('Ctrl Pts',(-0.381555568585781,-1.45369863077961,-0.653373809943435));
#297=CARTESIAN_POINT('Ctrl Pts',(-0.197208806616642,-1.48994397626299,-0.730472929401846));
#298=CARTESIAN_POINT('Ctrl Pts',(-0.0959664758315167,-1.5,-0.75));
#299=CARTESIAN_POINT('Ctrl Pts',(0.0959664758315167,-1.5,-0.75));
#300=CARTESIAN_POINT('Ctrl Pts',(0.197208806616642,-1.48994397626299,-0.730472929401846));
#301=CARTESIAN_POINT('Ctrl Pts',(0.381555568585781,-1.45369863077961,-0.653373809943435));
#302=CARTESIAN_POINT('Ctrl Pts',(0.464772502354697,-1.42789995755287,-0.595887669425124));
#303=CARTESIAN_POINT('Ctrl Pts',(0.596066871098276,-1.37827535066163,-0.464593300681546));
#304=CARTESIAN_POINT('Ctrl Pts',(0.65342153230217,-1.35089700934551,-0.381436769630866));
#305=CARTESIAN_POINT('Ctrl Pts',(0.73041418835757,-1.3108690769647,-0.197353950947464));
#306=CARTESIAN_POINT('Ctrl Pts',(0.75,-1.29903810567666,-0.0962288002203683));
#307=CARTESIAN_POINT('Ctrl Pts',(0.75,-1.29903810567666,-1.73472347597681E-17));
#308=CARTESIAN_POINT('Ctrl Pts',(0.75,-1.29903810567666,-1.73472347597681E-17));
#309=CARTESIAN_POINT('Ctrl Pts',(0.75,-1.29903810567666,0.0962288002203682));
#310=CARTESIAN_POINT('Ctrl Pts',(0.73041418835757,-1.3108690769647,0.197353950947464));
#311=CARTESIAN_POINT('Ctrl Pts',(0.65342153230217,-1.35089700934551,0.381436769630866));
#312=CARTESIAN_POINT('Ctrl Pts',(0.596066871098276,-1.37827535066163,0.464593300681546));
#313=CARTESIAN_POINT('Ctrl Pts',(0.464772502354697,-1.42789995755287,0.595887669425124));
#314=CARTESIAN_POINT('Ctrl Pts',(0.381555568585781,-1.45369863077961,0.653373809943435));
#315=CARTESIAN_POINT('Ctrl Pts',(0.197208806616642,-1.48994397626299,0.730472929401846));
#316=CARTESIAN_POINT('Ctrl Pts',(0.0959664758315169,-1.5,0.75));
#317=CARTESIAN_POINT('Ctrl Pts',(-0.0959664758315165,-1.5,0.75));
#318=CARTESIAN_POINT('Ctrl Pts',(-0.197208806616641,-1.48994397626299,0.730472929401846));
#319=CARTESIAN_POINT('Ctrl Pts',(-0.381555568585781,-1.45369863077961,0.653373809943436));
#320=CARTESIAN_POINT('Ctrl Pts',(-0.464772502354697,-1.42789995755287,0.595887669425124));
#321=CARTESIAN_POINT('Ctrl Pts',(-0.596066871098276,-1.37827535066163,0.464593300681546));
#322=CARTESIAN_POINT('Ctrl Pts',(-0.65342153230217,-1.35089700934551,0.381436769630866));
#323=CARTESIAN_POINT('Ctrl Pts',(-0.73041418835757,-1.3108690769647,0.197353950947464));
#324=CARTESIAN_POINT('Ctrl Pts',(-0.75,-1.29903810567666,0.0962288002203683));
#325=CARTESIAN_POINT('Ctrl Pts',(-0.75,-1.29903810567666,0.));
#326=CARTESIAN_POINT('',(-0.75,1.29903810567666,0.));
#327=CARTESIAN_POINT('',(0.75,1.29903810567666,-9.18485099360515E-17));
#328=CARTESIAN_POINT('Ctrl Pts',(-0.75,1.29903810567666,0.));
#329=CARTESIAN_POINT('Ctrl Pts',(-0.75,1.29903810567666,0.0962288002203683));
#330=CARTESIAN_POINT('Ctrl Pts',(-0.73041418835757,1.3108690769647,0.197353950947464));
#331=CARTESIAN_POINT('Ctrl Pts',(-0.65342153230217,1.35089700934551,0.381436769630866));
#332=CARTESIAN_POINT('Ctrl Pts',(-0.596066871098276,1.37827535066163,0.464593300681546));
#333=CARTESIAN_POINT('Ctrl Pts',(-0.464772502354697,1.42789995755287,0.595887669425124));
#334=CARTESIAN_POINT('Ctrl Pts',(-0.381555568585781,1.45369863077961,0.653373809943436));
#335=CARTESIAN_POINT('Ctrl Pts',(-0.197208806616641,1.48994397626299,0.730472929401846));
#336=CARTESIAN_POINT('Ctrl Pts',(-0.0959664758315165,1.5,0.75));
#337=CARTESIAN_POINT('Ctrl Pts',(0.0959664758315169,1.5,0.75));
#338=CARTESIAN_POINT('Ctrl Pts',(0.197208806616642,1.48994397626299,0.730472929401846));
#339=CARTESIAN_POINT('Ctrl Pts',(0.381555568585781,1.45369863077961,0.653373809943435));
#340=CARTESIAN_POINT('Ctrl Pts',(0.464772502354697,1.42789995755287,0.595887669425124));
#341=CARTESIAN_POINT('Ctrl Pts',(0.596066871098276,1.37827535066163,0.464593300681546));
#342=CARTESIAN_POINT('Ctrl Pts',(0.65342153230217,1.35089700934551,0.381436769630866));
#343=CARTESIAN_POINT('Ctrl Pts',(0.73041418835757,1.3108690769647,0.197353950947464));
#344=CARTESIAN_POINT('Ctrl Pts',(0.75,1.29903810567666,0.0962288002203683));
#345=CARTESIAN_POINT('Ctrl Pts',(0.75,1.29903810567666,0.));
#346=CARTESIAN_POINT('Ctrl Pts',(0.75,1.29903810567666,0.));
#347=CARTESIAN_POINT('Ctrl Pts',(0.75,1.29903810567666,-0.0962288002203683));
#348=CARTESIAN_POINT('Ctrl Pts',(0.73041418835757,1.3108690769647,-0.197353950947464));
#349=CARTESIAN_POINT('Ctrl Pts',(0.65342153230217,1.35089700934551,-0.381436769630866));
#350=CARTESIAN_POINT('Ctrl Pts',(0.596066871098276,1.37827535066163,-0.464593300681546));
#351=CARTESIAN_POINT('Ctrl Pts',(0.464772502354697,1.42789995755287,-0.595887669425124));
#352=CARTESIAN_POINT('Ctrl Pts',(0.381555568585781,1.45369863077961,-0.653373809943435));
#353=CARTESIAN_POINT('Ctrl Pts',(0.197208806616642,1.48994397626299,-0.730472929401846));
#354=CARTESIAN_POINT('Ctrl Pts',(0.0959664758315167,1.5,-0.75));
#355=CARTESIAN_POINT('Ctrl Pts',(-0.0959664758315167,1.5,-0.75));
#356=CARTESIAN_POINT('Ctrl Pts',(-0.197208806616642,1.48994397626299,-0.730472929401846));
#357=CARTESIAN_POINT('Ctrl Pts',(-0.381555568585781,1.45369863077961,-0.653373809943435));
#358=CARTESIAN_POINT('Ctrl Pts',(-0.464772502354697,1.42789995755287,-0.595887669425124));
#359=CARTESIAN_POINT('Ctrl Pts',(-0.596066871098276,1.37827535066163,-0.464593300681546));
#360=CARTESIAN_POINT('Ctrl Pts',(-0.65342153230217,1.35089700934551,-0.381436769630866));
#361=CARTESIAN_POINT('Ctrl Pts',(-0.73041418835757,1.3108690769647,-0.197353950947464));
#362=CARTESIAN_POINT('Ctrl Pts',(-0.75,1.29903810567666,-0.0962288002203683));
#363=CARTESIAN_POINT('Ctrl Pts',(-0.75,1.29903810567666,0.));
#364=CARTESIAN_POINT('Origin',(-1.9388312758347E-16,-2.89120579329468E-17,
3.925));
#365=CARTESIAN_POINT('',(2.,2.44929359829471E-16,3.925));
#366=CARTESIAN_POINT('Origin',(0.,0.,3.925));
#367=CARTESIAN_POINT('Origin',(2.,2.,-1.5));
#368=CARTESIAN_POINT('',(-0.871779788708134,1.8,-1.5));
#369=CARTESIAN_POINT('',(0.871779788708134,1.8,-1.5));
#370=CARTESIAN_POINT('Origin',(0.,0.,-1.5));
#371=CARTESIAN_POINT('',(2.,1.8,-1.5));
#372=CARTESIAN_POINT('Origin',(2.,1.8,1.5));
#373=CARTESIAN_POINT('',(0.871779788708135,1.8,1.5));
#374=CARTESIAN_POINT('',(-0.871779788708135,1.8,1.5));
#375=CARTESIAN_POINT('Origin',(0.,0.,1.5));
#376=CARTESIAN_POINT('',(2.,1.8,1.5));
#377=CARTESIAN_POINT('Origin',(2.,1.8,-1.5));
#378=CARTESIAN_POINT('',(0.871779788708135,1.8,0.));
#379=CARTESIAN_POINT('',(-0.871779788708135,1.8,0.));
#380=CARTESIAN_POINT('',(0.75,1.8,-9.18485099360515E-17));
#381=CARTESIAN_POINT('Origin',(0.,1.8,0.));
#382=CARTESIAN_POINT('Origin',(0.,-7.67587205372208,0.));
#383=CARTESIAN_POINT('',(0.75,-1.85404962177392,-4.59242549680258E-17));
#384=CARTESIAN_POINT('',(0.75,-7.67587205372208,-9.18485099360515E-17));
#385=CARTESIAN_POINT('',(0.,-2.,0.75));
#386=CARTESIAN_POINT('Ctrl Pts',(-4.33680868994202E-17,-2.,0.75));
#387=CARTESIAN_POINT('Ctrl Pts',(0.0951521612235876,-2.,0.75));
#388=CARTESIAN_POINT('Ctrl Pts',(0.196029850240439,-1.99255262378151,0.730794969650947));
#389=CARTESIAN_POINT('Ctrl Pts',(0.380561887362885,-1.9656719742078,0.653958426491336));
#390=CARTESIAN_POINT('Ctrl Pts',(0.464284520693658,-1.94656923867292,0.596375651086163));
#391=CARTESIAN_POINT('Ctrl Pts',(0.596426265454392,-1.91022899702787,0.46423390632543));
#392=CARTESIAN_POINT('Ctrl Pts',(0.653970417385867,-1.89050212944397,0.380530838068461));
#393=CARTESIAN_POINT('Ctrl Pts',(0.730777711787872,-1.86215994150666,0.1960735486216));
#394=CARTESIAN_POINT('Ctrl Pts',(0.75,-1.85404962177392,0.0952250815856378));
#395=CARTESIAN_POINT('Ctrl Pts',(0.75,-1.85404962177392,0.));
#396=CARTESIAN_POINT('',(0.,-2.,-0.75));
#397=CARTESIAN_POINT('Ctrl Pts',(1.04083408558608E-16,-2.,-0.75));
#398=CARTESIAN_POINT('Ctrl Pts',(-0.0951521612235874,-2.,-0.75));
#399=CARTESIAN_POINT('Ctrl Pts',(-0.196029850240439,-1.99255262378151,-0.730794969650947));
#400=CARTESIAN_POINT('Ctrl Pts',(-0.380561887362885,-1.9656719742078,-0.653958426491336));
#401=CARTESIAN_POINT('Ctrl Pts',(-0.464284520693658,-1.94656923867292,-0.596375651086163));
#402=CARTESIAN_POINT('Ctrl Pts',(-0.596426265454392,-1.91022899702787,-0.46423390632543));
#403=CARTESIAN_POINT('Ctrl Pts',(-0.653970417385867,-1.89050212944397,-0.380530838068461));
#404=CARTESIAN_POINT('Ctrl Pts',(-0.730777711787872,-1.86215994150666,-0.1960735486216));
#405=CARTESIAN_POINT('Ctrl Pts',(-0.75,-1.85404962177392,-0.0952250815856379));
#406=CARTESIAN_POINT('Ctrl Pts',(-0.75,-1.85404962177392,0.));
#407=CARTESIAN_POINT('Ctrl Pts',(-0.75,-1.85404962177392,0.0952250815856378));
#408=CARTESIAN_POINT('Ctrl Pts',(-0.730777711787872,-1.86215994150666,0.1960735486216));
#409=CARTESIAN_POINT('Ctrl Pts',(-0.653970417385867,-1.89050212944397,0.380530838068461));
#410=CARTESIAN_POINT('Ctrl Pts',(-0.596426265454392,-1.91022899702787,0.46423390632543));
#411=CARTESIAN_POINT('Ctrl Pts',(-0.464284520693658,-1.94656923867292,0.596375651086163));
#412=CARTESIAN_POINT('Ctrl Pts',(-0.380561887362885,-1.9656719742078,0.653958426491336));
#413=CARTESIAN_POINT('Ctrl Pts',(-0.196029850240439,-1.99255262378151,0.730794969650947));
#414=CARTESIAN_POINT('Ctrl Pts',(-0.0951521612235876,-2.,0.75));
#415=CARTESIAN_POINT('Ctrl Pts',(-4.33680868994202E-17,-2.,0.75));
#416=CARTESIAN_POINT('Ctrl Pts',(0.75,-1.85404962177392,0.));
#417=CARTESIAN_POINT('Ctrl Pts',(0.75,-1.85404962177392,-0.0952250815856378));
#418=CARTESIAN_POINT('Ctrl Pts',(0.730777711787872,-1.86215994150666,-0.1960735486216));
#419=CARTESIAN_POINT('Ctrl Pts',(0.653970417385867,-1.89050212944397,-0.380530838068461));
#420=CARTESIAN_POINT('Ctrl Pts',(0.596426265454392,-1.91022899702787,-0.46423390632543));
#421=CARTESIAN_POINT('Ctrl Pts',(0.464284520693658,-1.94656923867292,-0.596375651086163));
#422=CARTESIAN_POINT('Ctrl Pts',(0.380561887362885,-1.9656719742078,-0.653958426491336));
#423=CARTESIAN_POINT('Ctrl Pts',(0.196029850240439,-1.99255262378151,-0.730794969650947));
#424=CARTESIAN_POINT('Ctrl Pts',(0.0951521612235878,-2.,-0.75));
#425=CARTESIAN_POINT('Ctrl Pts',(1.04083408558608E-16,-2.,-0.75));
#426=CARTESIAN_POINT('Origin',(0.,-7.67587205372208,0.));
#427=CARTESIAN_POINT('',(0.75,-7.67587205372208,-9.18485099360515E-17));
#428=CARTESIAN_POINT('Origin',(-1.9388312758347E-16,-2.89120579329468E-17,
-3.925));
#429=CARTESIAN_POINT('',(2.,2.44929359829471E-16,-3.925));
#430=CARTESIAN_POINT('Origin',(0.,0.,-3.925));
#431=CARTESIAN_POINT('Origin',(0.,0.,0.));
#432=CARTESIAN_POINT('',(2.,2.44929359829471E-16,0.));
#433=UNCERTAINTY_MEASURE_WITH_UNIT(LENGTH_MEASURE(0.01),#437,
'DISTANCE_ACCURACY_VALUE',
'Maximum model space distance between geometric entities at asserted c
onnectivities');
#434=UNCERTAINTY_MEASURE_WITH_UNIT(LENGTH_MEASURE(0.01),#437,
'DISTANCE_ACCURACY_VALUE',
'Maximum model space distance between geometric entities at asserted c
onnectivities');
#435=(
GEOMETRIC_REPRESENTATION_CONTEXT(3)
GLOBAL_UNCERTAINTY_ASSIGNED_CONTEXT((#433))
GLOBAL_UNIT_ASSIGNED_CONTEXT((#437,#440,#439))
REPRESENTATION_CONTEXT('','3D')
);
#436=(
GEOMETRIC_REPRESENTATION_CONTEXT(3)
GLOBAL_UNCERTAINTY_ASSIGNED_CONTEXT((#434))
GLOBAL_UNIT_ASSIGNED_CONTEXT((#437,#440,#439))
REPRESENTATION_CONTEXT('','3D')
);
#437=(
LENGTH_UNIT()
NAMED_UNIT(*)
SI_UNIT(.MILLI.,.METRE.)
);
#438=(
LENGTH_UNIT()
NAMED_UNIT(*)
SI_UNIT(.CENTI.,.METRE.)
);
#439=(
NAMED_UNIT(*)
SI_UNIT($,.STERADIAN.)
SOLID_ANGLE_UNIT()
);
#440=(
NAMED_UNIT(*)
PLANE_ANGLE_UNIT()
SI_UNIT($,.RADIAN.)
);
#441=SHAPE_DEFINITION_REPRESENTATION(#442,#443);
#442=PRODUCT_DEFINITION_SHAPE('',$,#445);
#443=SHAPE_REPRESENTATION('',(#211),#435);
#444=PRODUCT_DEFINITION_CONTEXT('part definition',#449,'design');
#445=PRODUCT_DEFINITION('Fermoire - Tube ance (x2)',
'P - Fermoir - Tube (x3)',#446,#444);
#446=PRODUCT_DEFINITION_FORMATION('',$,#451);
#447=PRODUCT_RELATED_PRODUCT_CATEGORY('P - Fermoir - Tube (x3)',
'P - Fermoir - Tube (x3)',(#451));
#448=APPLICATION_PROTOCOL_DEFINITION('international standard',
'automotive_design',2009,#449);
#449=APPLICATION_CONTEXT(
'Core Data for Automotive Mechanical Design Process');
#450=PRODUCT_CONTEXT('part definition',#449,'mechanical');
#451=PRODUCT('Fermoire - Tube ance (x2)','P - Fermoir - Tube (x3)',$,(#450));
#452=PRESENTATION_STYLE_ASSIGNMENT((#455));
#453=PRESENTATION_STYLE_ASSIGNMENT((#456));
#454=PRESENTATION_STYLE_ASSIGNMENT((#457));
#455=SURFACE_STYLE_USAGE(.BOTH.,#458);
#456=SURFACE_STYLE_USAGE(.BOTH.,#459);
#457=SURFACE_STYLE_USAGE(.BOTH.,#460);
#458=SURFACE_SIDE_STYLE('',(#461));
#459=SURFACE_SIDE_STYLE('',(#462));
#460=SURFACE_SIDE_STYLE('',(#463));
#461=SURFACE_STYLE_FILL_AREA(#464);
#462=SURFACE_STYLE_FILL_AREA(#465);
#463=SURFACE_STYLE_FILL_AREA(#466);
#464=FILL_AREA_STYLE('',(#467));
#465=FILL_AREA_STYLE('',(#468));
#466=FILL_AREA_STYLE('',(#469));
#467=FILL_AREA_STYLE_COLOUR('',#470);
#468=FILL_AREA_STYLE_COLOUR('',#471);
#469=FILL_AREA_STYLE_COLOUR('',#472);
#470=COLOUR_RGB('',0.749019607843137,0.749019607843137,0.749019607843137);
#471=COLOUR_RGB('',0.647058823529412,0.6,0.352941176470588);
#472=COLOUR_RGB('',1.,0.945098039215686,0.694117647058824);
ENDSEC;
END-ISO-10303-21;
