ISO-10303-21;
HEADER;
/* Generated by software containing ST-Developer
 * from STEP Tools, Inc. (www.steptools.com) 
 */

FILE_DESCRIPTION(
/* description */ (''),
/* implementation_level */ '2;1');

FILE_NAME(
/* name */ 
'C:\\Users\\User\\Documents\\Fichier Inventor\\NORCE\\P2_metal_x16.stp',

/* time_stamp */ '2019-07-01T17:34:29+02:00',
/* author */ ('User'),
/* organization */ (''),
/* preprocessor_version */ 'ST-DEVELOPER v17',
/* originating_system */ 'Autodesk Inventor 2019',
/* authorisation */ '');

FILE_SCHEMA (('AUTOMOTIVE_DESIGN { 1 0 10303 214 3 1 1 }'));
ENDSEC;

DATA;
#10=MECHANICAL_DESIGN_GEOMETRIC_PRESENTATION_REPRESENTATION('',(#13),#531);
#11=SHAPE_REPRESENTATION_RELATIONSHIP('SRR','None',#538,#12);
#12=ADVANCED_BREP_SHAPE_REPRESENTATION('',(#14),#530);
#13=STYLED_ITEM('',(#547),#14);
#14=MANIFOLD_SOLID_BREP('Solide1',#321);
#15=FACE_BOUND('',#51,.T.);
#16=FACE_BOUND('',#54,.T.);
#17=FACE_BOUND('',#61,.T.);
#18=FACE_BOUND('',#66,.T.);
#19=PLANE('',#344);
#20=PLANE('',#348);
#21=PLANE('',#349);
#22=PLANE('',#350);
#23=PLANE('',#351);
#24=PLANE('',#352);
#25=PLANE('',#353);
#26=PLANE('',#354);
#27=PLANE('',#355);
#28=PLANE('',#356);
#29=PLANE('',#357);
#30=PLANE('',#358);
#31=PLANE('',#359);
#32=PLANE('',#360);
#33=FACE_OUTER_BOUND('',#49,.T.);
#34=FACE_OUTER_BOUND('',#50,.T.);
#35=FACE_OUTER_BOUND('',#52,.T.);
#36=FACE_OUTER_BOUND('',#53,.T.);
#37=FACE_OUTER_BOUND('',#55,.T.);
#38=FACE_OUTER_BOUND('',#56,.T.);
#39=FACE_OUTER_BOUND('',#57,.T.);
#40=FACE_OUTER_BOUND('',#58,.T.);
#41=FACE_OUTER_BOUND('',#59,.T.);
#42=FACE_OUTER_BOUND('',#60,.T.);
#43=FACE_OUTER_BOUND('',#62,.T.);
#44=FACE_OUTER_BOUND('',#63,.T.);
#45=FACE_OUTER_BOUND('',#64,.T.);
#46=FACE_OUTER_BOUND('',#65,.T.);
#47=FACE_OUTER_BOUND('',#67,.T.);
#48=FACE_OUTER_BOUND('',#68,.T.);
#49=EDGE_LOOP('',(#219,#220,#221,#222));
#50=EDGE_LOOP('',(#223,#224,#225,#226));
#51=EDGE_LOOP('',(#227));
#52=EDGE_LOOP('',(#228,#229,#230,#231));
#53=EDGE_LOOP('',(#232,#233,#234,#235));
#54=EDGE_LOOP('',(#236));
#55=EDGE_LOOP('',(#237,#238,#239,#240));
#56=EDGE_LOOP('',(#241,#242,#243,#244));
#57=EDGE_LOOP('',(#245,#246,#247,#248));
#58=EDGE_LOOP('',(#249,#250,#251,#252));
#59=EDGE_LOOP('',(#253,#254,#255,#256));
#60=EDGE_LOOP('',(#257,#258,#259,#260));
#61=EDGE_LOOP('',(#261));
#62=EDGE_LOOP('',(#262,#263,#264,#265));
#63=EDGE_LOOP('',(#266,#267,#268,#269));
#64=EDGE_LOOP('',(#270,#271,#272,#273));
#65=EDGE_LOOP('',(#274,#275,#276,#277));
#66=EDGE_LOOP('',(#278));
#67=EDGE_LOOP('',(#279,#280,#281,#282,#283,#284,#285,#286,#287,#288,#289,
#290));
#68=EDGE_LOOP('',(#291,#292,#293,#294,#295,#296,#297,#298,#299,#300,#301,
#302));
#69=LINE('',#446,#107);
#70=LINE('',#451,#108);
#71=LINE('',#453,#109);
#72=LINE('',#455,#110);
#73=LINE('',#456,#111);
#74=LINE('',#461,#112);
#75=LINE('',#466,#113);
#76=LINE('',#468,#114);
#77=LINE('',#470,#115);
#78=LINE('',#471,#116);
#79=LINE('',#474,#117);
#80=LINE('',#476,#118);
#81=LINE('',#477,#119);
#82=LINE('',#480,#120);
#83=LINE('',#482,#121);
#84=LINE('',#483,#122);
#85=LINE('',#486,#123);
#86=LINE('',#488,#124);
#87=LINE('',#489,#125);
#88=LINE('',#491,#126);
#89=LINE('',#492,#127);
#90=LINE('',#495,#128);
#91=LINE('',#497,#129);
#92=LINE('',#498,#130);
#93=LINE('',#501,#131);
#94=LINE('',#503,#132);
#95=LINE('',#504,#133);
#96=LINE('',#507,#134);
#97=LINE('',#509,#135);
#98=LINE('',#510,#136);
#99=LINE('',#513,#137);
#100=LINE('',#515,#138);
#101=LINE('',#516,#139);
#102=LINE('',#519,#140);
#103=LINE('',#521,#141);
#104=LINE('',#522,#142);
#105=LINE('',#524,#143);
#106=LINE('',#525,#144);
#107=VECTOR('',#367,4.1);
#108=VECTOR('',#372,10.);
#109=VECTOR('',#373,10.);
#110=VECTOR('',#374,10.);
#111=VECTOR('',#375,10.);
#112=VECTOR('',#380,4.1);
#113=VECTOR('',#385,10.);
#114=VECTOR('',#386,10.);
#115=VECTOR('',#387,10.);
#116=VECTOR('',#388,10.);
#117=VECTOR('',#391,10.);
#118=VECTOR('',#392,10.);
#119=VECTOR('',#393,10.);
#120=VECTOR('',#396,10.);
#121=VECTOR('',#397,10.);
#122=VECTOR('',#398,10.);
#123=VECTOR('',#401,10.);
#124=VECTOR('',#402,10.);
#125=VECTOR('',#403,10.);
#126=VECTOR('',#406,10.);
#127=VECTOR('',#407,10.);
#128=VECTOR('',#410,10.);
#129=VECTOR('',#411,10.);
#130=VECTOR('',#412,10.);
#131=VECTOR('',#415,10.);
#132=VECTOR('',#416,10.);
#133=VECTOR('',#417,10.);
#134=VECTOR('',#420,10.);
#135=VECTOR('',#421,10.);
#136=VECTOR('',#422,10.);
#137=VECTOR('',#425,10.);
#138=VECTOR('',#426,10.);
#139=VECTOR('',#427,10.);
#140=VECTOR('',#430,10.);
#141=VECTOR('',#431,10.);
#142=VECTOR('',#432,10.);
#143=VECTOR('',#435,10.);
#144=VECTOR('',#436,10.);
#145=CIRCLE('',#342,5.1);
#146=CIRCLE('',#343,3.09999999999999);
#147=CIRCLE('',#346,5.1);
#148=CIRCLE('',#347,3.1);
#149=VERTEX_POINT('',#443);
#150=VERTEX_POINT('',#445);
#151=VERTEX_POINT('',#449);
#152=VERTEX_POINT('',#450);
#153=VERTEX_POINT('',#452);
#154=VERTEX_POINT('',#454);
#155=VERTEX_POINT('',#458);
#156=VERTEX_POINT('',#460);
#157=VERTEX_POINT('',#464);
#158=VERTEX_POINT('',#465);
#159=VERTEX_POINT('',#467);
#160=VERTEX_POINT('',#469);
#161=VERTEX_POINT('',#473);
#162=VERTEX_POINT('',#475);
#163=VERTEX_POINT('',#479);
#164=VERTEX_POINT('',#481);
#165=VERTEX_POINT('',#485);
#166=VERTEX_POINT('',#487);
#167=VERTEX_POINT('',#494);
#168=VERTEX_POINT('',#496);
#169=VERTEX_POINT('',#500);
#170=VERTEX_POINT('',#502);
#171=VERTEX_POINT('',#506);
#172=VERTEX_POINT('',#508);
#173=VERTEX_POINT('',#512);
#174=VERTEX_POINT('',#514);
#175=VERTEX_POINT('',#518);
#176=VERTEX_POINT('',#520);
#177=EDGE_CURVE('',#149,#149,#145,.T.);
#178=EDGE_CURVE('',#149,#150,#69,.T.);
#179=EDGE_CURVE('',#150,#150,#146,.T.);
#180=EDGE_CURVE('',#151,#152,#70,.T.);
#181=EDGE_CURVE('',#152,#153,#71,.T.);
#182=EDGE_CURVE('',#154,#153,#72,.T.);
#183=EDGE_CURVE('',#151,#154,#73,.T.);
#184=EDGE_CURVE('',#155,#155,#147,.T.);
#185=EDGE_CURVE('',#155,#156,#74,.T.);
#186=EDGE_CURVE('',#156,#156,#148,.T.);
#187=EDGE_CURVE('',#157,#158,#75,.T.);
#188=EDGE_CURVE('',#158,#159,#76,.T.);
#189=EDGE_CURVE('',#160,#159,#77,.T.);
#190=EDGE_CURVE('',#157,#160,#78,.T.);
#191=EDGE_CURVE('',#158,#161,#79,.T.);
#192=EDGE_CURVE('',#161,#162,#80,.T.);
#193=EDGE_CURVE('',#159,#162,#81,.T.);
#194=EDGE_CURVE('',#163,#157,#82,.T.);
#195=EDGE_CURVE('',#164,#160,#83,.T.);
#196=EDGE_CURVE('',#163,#164,#84,.T.);
#197=EDGE_CURVE('',#165,#163,#85,.T.);
#198=EDGE_CURVE('',#166,#164,#86,.T.);
#199=EDGE_CURVE('',#165,#166,#87,.T.);
#200=EDGE_CURVE('',#152,#165,#88,.T.);
#201=EDGE_CURVE('',#153,#166,#89,.T.);
#202=EDGE_CURVE('',#167,#151,#90,.T.);
#203=EDGE_CURVE('',#168,#154,#91,.T.);
#204=EDGE_CURVE('',#167,#168,#92,.T.);
#205=EDGE_CURVE('',#169,#167,#93,.T.);
#206=EDGE_CURVE('',#170,#168,#94,.T.);
#207=EDGE_CURVE('',#169,#170,#95,.T.);
#208=EDGE_CURVE('',#171,#169,#96,.T.);
#209=EDGE_CURVE('',#172,#170,#97,.T.);
#210=EDGE_CURVE('',#171,#172,#98,.T.);
#211=EDGE_CURVE('',#173,#171,#99,.T.);
#212=EDGE_CURVE('',#174,#172,#100,.T.);
#213=EDGE_CURVE('',#173,#174,#101,.T.);
#214=EDGE_CURVE('',#175,#173,#102,.T.);
#215=EDGE_CURVE('',#176,#174,#103,.T.);
#216=EDGE_CURVE('',#175,#176,#104,.T.);
#217=EDGE_CURVE('',#161,#175,#105,.T.);
#218=EDGE_CURVE('',#162,#176,#106,.T.);
#219=ORIENTED_EDGE('',*,*,#177,.T.);
#220=ORIENTED_EDGE('',*,*,#178,.T.);
#221=ORIENTED_EDGE('',*,*,#179,.F.);
#222=ORIENTED_EDGE('',*,*,#178,.F.);
#223=ORIENTED_EDGE('',*,*,#180,.T.);
#224=ORIENTED_EDGE('',*,*,#181,.T.);
#225=ORIENTED_EDGE('',*,*,#182,.F.);
#226=ORIENTED_EDGE('',*,*,#183,.F.);
#227=ORIENTED_EDGE('',*,*,#177,.F.);
#228=ORIENTED_EDGE('',*,*,#184,.T.);
#229=ORIENTED_EDGE('',*,*,#185,.T.);
#230=ORIENTED_EDGE('',*,*,#186,.F.);
#231=ORIENTED_EDGE('',*,*,#185,.F.);
#232=ORIENTED_EDGE('',*,*,#187,.T.);
#233=ORIENTED_EDGE('',*,*,#188,.T.);
#234=ORIENTED_EDGE('',*,*,#189,.F.);
#235=ORIENTED_EDGE('',*,*,#190,.F.);
#236=ORIENTED_EDGE('',*,*,#184,.F.);
#237=ORIENTED_EDGE('',*,*,#191,.T.);
#238=ORIENTED_EDGE('',*,*,#192,.T.);
#239=ORIENTED_EDGE('',*,*,#193,.F.);
#240=ORIENTED_EDGE('',*,*,#188,.F.);
#241=ORIENTED_EDGE('',*,*,#194,.T.);
#242=ORIENTED_EDGE('',*,*,#190,.T.);
#243=ORIENTED_EDGE('',*,*,#195,.F.);
#244=ORIENTED_EDGE('',*,*,#196,.F.);
#245=ORIENTED_EDGE('',*,*,#197,.T.);
#246=ORIENTED_EDGE('',*,*,#196,.T.);
#247=ORIENTED_EDGE('',*,*,#198,.F.);
#248=ORIENTED_EDGE('',*,*,#199,.F.);
#249=ORIENTED_EDGE('',*,*,#200,.T.);
#250=ORIENTED_EDGE('',*,*,#199,.T.);
#251=ORIENTED_EDGE('',*,*,#201,.F.);
#252=ORIENTED_EDGE('',*,*,#181,.F.);
#253=ORIENTED_EDGE('',*,*,#202,.T.);
#254=ORIENTED_EDGE('',*,*,#183,.T.);
#255=ORIENTED_EDGE('',*,*,#203,.F.);
#256=ORIENTED_EDGE('',*,*,#204,.F.);
#257=ORIENTED_EDGE('',*,*,#205,.T.);
#258=ORIENTED_EDGE('',*,*,#204,.T.);
#259=ORIENTED_EDGE('',*,*,#206,.F.);
#260=ORIENTED_EDGE('',*,*,#207,.F.);
#261=ORIENTED_EDGE('',*,*,#179,.T.);
#262=ORIENTED_EDGE('',*,*,#208,.T.);
#263=ORIENTED_EDGE('',*,*,#207,.T.);
#264=ORIENTED_EDGE('',*,*,#209,.F.);
#265=ORIENTED_EDGE('',*,*,#210,.F.);
#266=ORIENTED_EDGE('',*,*,#211,.T.);
#267=ORIENTED_EDGE('',*,*,#210,.T.);
#268=ORIENTED_EDGE('',*,*,#212,.F.);
#269=ORIENTED_EDGE('',*,*,#213,.F.);
#270=ORIENTED_EDGE('',*,*,#214,.T.);
#271=ORIENTED_EDGE('',*,*,#213,.T.);
#272=ORIENTED_EDGE('',*,*,#215,.F.);
#273=ORIENTED_EDGE('',*,*,#216,.F.);
#274=ORIENTED_EDGE('',*,*,#217,.T.);
#275=ORIENTED_EDGE('',*,*,#216,.T.);
#276=ORIENTED_EDGE('',*,*,#218,.F.);
#277=ORIENTED_EDGE('',*,*,#192,.F.);
#278=ORIENTED_EDGE('',*,*,#186,.T.);
#279=ORIENTED_EDGE('',*,*,#218,.T.);
#280=ORIENTED_EDGE('',*,*,#215,.T.);
#281=ORIENTED_EDGE('',*,*,#212,.T.);
#282=ORIENTED_EDGE('',*,*,#209,.T.);
#283=ORIENTED_EDGE('',*,*,#206,.T.);
#284=ORIENTED_EDGE('',*,*,#203,.T.);
#285=ORIENTED_EDGE('',*,*,#182,.T.);
#286=ORIENTED_EDGE('',*,*,#201,.T.);
#287=ORIENTED_EDGE('',*,*,#198,.T.);
#288=ORIENTED_EDGE('',*,*,#195,.T.);
#289=ORIENTED_EDGE('',*,*,#189,.T.);
#290=ORIENTED_EDGE('',*,*,#193,.T.);
#291=ORIENTED_EDGE('',*,*,#217,.F.);
#292=ORIENTED_EDGE('',*,*,#191,.F.);
#293=ORIENTED_EDGE('',*,*,#187,.F.);
#294=ORIENTED_EDGE('',*,*,#194,.F.);
#295=ORIENTED_EDGE('',*,*,#197,.F.);
#296=ORIENTED_EDGE('',*,*,#200,.F.);
#297=ORIENTED_EDGE('',*,*,#180,.F.);
#298=ORIENTED_EDGE('',*,*,#202,.F.);
#299=ORIENTED_EDGE('',*,*,#205,.F.);
#300=ORIENTED_EDGE('',*,*,#208,.F.);
#301=ORIENTED_EDGE('',*,*,#211,.F.);
#302=ORIENTED_EDGE('',*,*,#214,.F.);
#303=CONICAL_SURFACE('',#341,4.1,0.78539816339745);
#304=CONICAL_SURFACE('',#345,4.1,0.785398163397448);
#305=ADVANCED_FACE('',(#33),#303,.F.);
#306=ADVANCED_FACE('',(#34,#15),#19,.T.);
#307=ADVANCED_FACE('',(#35),#304,.F.);
#308=ADVANCED_FACE('',(#36,#16),#20,.T.);
#309=ADVANCED_FACE('',(#37),#21,.T.);
#310=ADVANCED_FACE('',(#38),#22,.T.);
#311=ADVANCED_FACE('',(#39),#23,.T.);
#312=ADVANCED_FACE('',(#40),#24,.T.);
#313=ADVANCED_FACE('',(#41),#25,.T.);
#314=ADVANCED_FACE('',(#42,#17),#26,.T.);
#315=ADVANCED_FACE('',(#43),#27,.T.);
#316=ADVANCED_FACE('',(#44),#28,.T.);
#317=ADVANCED_FACE('',(#45),#29,.T.);
#318=ADVANCED_FACE('',(#46,#18),#30,.T.);
#319=ADVANCED_FACE('',(#47),#31,.T.);
#320=ADVANCED_FACE('',(#48),#32,.F.);
#321=CLOSED_SHELL('',(#305,#306,#307,#308,#309,#310,#311,#312,#313,#314,
#315,#316,#317,#318,#319,#320));
#322=DERIVED_UNIT_ELEMENT(#324,1.);
#323=DERIVED_UNIT_ELEMENT(#533,3.);
#324=(
MASS_UNIT()
NAMED_UNIT(*)
SI_UNIT($,.GRAM.)
);
#325=DERIVED_UNIT((#322,#323));
#326=MEASURE_REPRESENTATION_ITEM('density measure',
POSITIVE_RATIO_MEASURE(1.),#325);
#327=PROPERTY_DEFINITION_REPRESENTATION(#332,#329);
#328=PROPERTY_DEFINITION_REPRESENTATION(#333,#330);
#329=REPRESENTATION('material name',(#331),#530);
#330=REPRESENTATION('density',(#326),#530);
#331=DESCRIPTIVE_REPRESENTATION_ITEM('G\X\E9n\X\E9rique','G\X\E9n\X\E9
rique');
#332=PROPERTY_DEFINITION('material property','material name',#540);
#333=PROPERTY_DEFINITION('material property','density of part',#540);
#334=DATE_TIME_ROLE('creation_date');
#335=APPLIED_DATE_AND_TIME_ASSIGNMENT(#336,#334,(#540));
#336=DATE_AND_TIME(#337,#338);
#337=CALENDAR_DATE(2019,1,7);
#338=LOCAL_TIME(16,15,37.,#339);
#339=COORDINATED_UNIVERSAL_TIME_OFFSET(0,0,.BEHIND.);
#340=AXIS2_PLACEMENT_3D('placement',#441,#361,#362);
#341=AXIS2_PLACEMENT_3D('',#442,#363,#364);
#342=AXIS2_PLACEMENT_3D('',#444,#365,#366);
#343=AXIS2_PLACEMENT_3D('',#447,#368,#369);
#344=AXIS2_PLACEMENT_3D('',#448,#370,#371);
#345=AXIS2_PLACEMENT_3D('',#457,#376,#377);
#346=AXIS2_PLACEMENT_3D('',#459,#378,#379);
#347=AXIS2_PLACEMENT_3D('',#462,#381,#382);
#348=AXIS2_PLACEMENT_3D('',#463,#383,#384);
#349=AXIS2_PLACEMENT_3D('',#472,#389,#390);
#350=AXIS2_PLACEMENT_3D('',#478,#394,#395);
#351=AXIS2_PLACEMENT_3D('',#484,#399,#400);
#352=AXIS2_PLACEMENT_3D('',#490,#404,#405);
#353=AXIS2_PLACEMENT_3D('',#493,#408,#409);
#354=AXIS2_PLACEMENT_3D('',#499,#413,#414);
#355=AXIS2_PLACEMENT_3D('',#505,#418,#419);
#356=AXIS2_PLACEMENT_3D('',#511,#423,#424);
#357=AXIS2_PLACEMENT_3D('',#517,#428,#429);
#358=AXIS2_PLACEMENT_3D('',#523,#433,#434);
#359=AXIS2_PLACEMENT_3D('',#526,#437,#438);
#360=AXIS2_PLACEMENT_3D('',#527,#439,#440);
#361=DIRECTION('axis',(0.,0.,1.));
#362=DIRECTION('refdir',(1.,0.,0.));
#363=DIRECTION('center_axis',(0.,1.,0.));
#364=DIRECTION('ref_axis',(-1.,-4.49730587007711E-16,0.));
#365=DIRECTION('center_axis',(-6.10622663543836E-16,1.,0.));
#366=DIRECTION('ref_axis',(-1.,-6.10622663543836E-16,0.));
#367=DIRECTION('',(-0.707106781186549,-0.707106781186546,8.65956056235495E-17));
#368=DIRECTION('center_axis',(-3.98444698167942E-16,1.,0.));
#369=DIRECTION('ref_axis',(1.,1.85037170770859E-16,0.));
#370=DIRECTION('center_axis',(-6.10622663543836E-16,1.,0.));
#371=DIRECTION('ref_axis',(-1.,-6.10622663543836E-16,0.));
#372=DIRECTION('',(-1.,-6.10622663543836E-16,0.));
#373=DIRECTION('',(0.,0.,1.));
#374=DIRECTION('',(-1.,-6.10622663543836E-16,0.));
#375=DIRECTION('',(0.,0.,1.));
#376=DIRECTION('center_axis',(0.,1.,0.));
#377=DIRECTION('ref_axis',(-1.,-1.85037170770859E-16,0.));
#378=DIRECTION('center_axis',(-1.85037170770859E-16,1.,0.));
#379=DIRECTION('ref_axis',(-1.,-1.85037170770859E-16,0.));
#380=DIRECTION('',(-0.707106781186547,-0.707106781186547,8.65956056235493E-17));
#381=DIRECTION('center_axis',(-2.32017913300296E-32,1.,0.));
#382=DIRECTION('ref_axis',(1.,1.85037170770859E-16,0.));
#383=DIRECTION('center_axis',(-1.85037170770859E-16,1.,0.));
#384=DIRECTION('ref_axis',(-1.,-1.85037170770859E-16,0.));
#385=DIRECTION('',(-1.,-1.85037170770859E-16,0.));
#386=DIRECTION('',(0.,0.,1.));
#387=DIRECTION('',(-1.,-1.85037170770859E-16,0.));
#388=DIRECTION('',(0.,0.,1.));
#389=DIRECTION('center_axis',(-1.,-5.51896858345924E-16,0.));
#390=DIRECTION('ref_axis',(5.51896858345924E-16,-1.,0.));
#391=DIRECTION('',(5.51896858345924E-16,-1.,0.));
#392=DIRECTION('',(0.,0.,1.));
#393=DIRECTION('',(5.51896858345924E-16,-1.,0.));
#394=DIRECTION('center_axis',(-1.,0.,0.));
#395=DIRECTION('ref_axis',(0.,-1.,0.));
#396=DIRECTION('',(0.,-1.,0.));
#397=DIRECTION('',(0.,-1.,0.));
#398=DIRECTION('',(0.,0.,1.));
#399=DIRECTION('center_axis',(-1.11022302462516E-15,1.,0.));
#400=DIRECTION('ref_axis',(-1.,-1.11022302462516E-15,0.));
#401=DIRECTION('',(-1.,-1.11022302462516E-15,0.));
#402=DIRECTION('',(-1.,-1.11022302462516E-15,0.));
#403=DIRECTION('',(0.,0.,1.));
#404=DIRECTION('center_axis',(1.,1.11022302462515E-15,0.));
#405=DIRECTION('ref_axis',(-1.11022302462515E-15,1.,0.));
#406=DIRECTION('',(-1.11022302462515E-15,1.,0.));
#407=DIRECTION('',(-1.11022302462515E-15,1.,0.));
#408=DIRECTION('center_axis',(1.,0.,0.));
#409=DIRECTION('ref_axis',(0.,1.,0.));
#410=DIRECTION('',(0.,1.,0.));
#411=DIRECTION('',(0.,1.,0.));
#412=DIRECTION('',(0.,0.,1.));
#413=DIRECTION('center_axis',(3.98444698167942E-16,-1.,0.));
#414=DIRECTION('ref_axis',(1.,3.98444698167942E-16,0.));
#415=DIRECTION('',(1.,3.98444698167942E-16,0.));
#416=DIRECTION('',(1.,3.98444698167942E-16,0.));
#417=DIRECTION('',(0.,0.,1.));
#418=DIRECTION('center_axis',(-1.,0.,0.));
#419=DIRECTION('ref_axis',(0.,-1.,0.));
#420=DIRECTION('',(0.,-1.,0.));
#421=DIRECTION('',(0.,-1.,0.));
#422=DIRECTION('',(0.,0.,1.));
#423=DIRECTION('center_axis',(9.71445146547012E-16,-1.,0.));
#424=DIRECTION('ref_axis',(1.,9.71445146547012E-16,0.));
#425=DIRECTION('',(1.,9.71445146547012E-16,0.));
#426=DIRECTION('',(1.,9.71445146547012E-16,0.));
#427=DIRECTION('',(0.,0.,1.));
#428=DIRECTION('center_axis',(1.,1.11022302462516E-15,0.));
#429=DIRECTION('ref_axis',(-1.11022302462516E-15,1.,0.));
#430=DIRECTION('',(-1.11022302462516E-15,1.,0.));
#431=DIRECTION('',(-1.11022302462516E-15,1.,0.));
#432=DIRECTION('',(0.,0.,1.));
#433=DIRECTION('center_axis',(2.32017913300296E-32,-1.,0.));
#434=DIRECTION('ref_axis',(1.,2.32017913300296E-32,0.));
#435=DIRECTION('',(1.,2.32017913300296E-32,0.));
#436=DIRECTION('',(1.,2.32017913300296E-32,0.));
#437=DIRECTION('center_axis',(0.,0.,1.));
#438=DIRECTION('ref_axis',(1.,0.,0.));
#439=DIRECTION('center_axis',(0.,0.,1.));
#440=DIRECTION('ref_axis',(1.,0.,0.));
#441=CARTESIAN_POINT('',(0.,0.,0.));
#442=CARTESIAN_POINT('Origin',(42.5,1.00000000000001,7.5));
#443=CARTESIAN_POINT('',(47.6,2.00000000000001,7.5));
#444=CARTESIAN_POINT('Origin',(42.5,2.00000000000001,7.5));
#445=CARTESIAN_POINT('',(45.6,6.93889390390723E-15,7.5));
#446=CARTESIAN_POINT('',(46.6,1.00000000000001,7.5));
#447=CARTESIAN_POINT('Origin',(42.5,1.80411241501588E-15,7.5));
#448=CARTESIAN_POINT('Origin',(50.,2.00000000000001,0.));
#449=CARTESIAN_POINT('',(50.,2.00000000000001,0.));
#450=CARTESIAN_POINT('',(35.,2.,0.));
#451=CARTESIAN_POINT('',(50.,2.00000000000001,0.));
#452=CARTESIAN_POINT('',(35.,2.,15.));
#453=CARTESIAN_POINT('',(35.,2.,0.));
#454=CARTESIAN_POINT('',(50.,2.00000000000001,15.));
#455=CARTESIAN_POINT('',(50.,2.00000000000001,15.));
#456=CARTESIAN_POINT('',(50.,2.00000000000001,0.));
#457=CARTESIAN_POINT('Origin',(7.5,1.,7.5));
#458=CARTESIAN_POINT('',(12.6,2.,7.5));
#459=CARTESIAN_POINT('Origin',(7.5,2.,7.5));
#460=CARTESIAN_POINT('',(10.6,5.55111512312578E-16,7.5));
#461=CARTESIAN_POINT('',(11.6,1.,7.5));
#462=CARTESIAN_POINT('Origin',(7.5,1.38777878078145E-15,7.5));
#463=CARTESIAN_POINT('Origin',(15.,2.,0.));
#464=CARTESIAN_POINT('',(15.,2.,0.));
#465=CARTESIAN_POINT('',(-1.10379371669185E-15,2.,0.));
#466=CARTESIAN_POINT('',(15.,2.,0.));
#467=CARTESIAN_POINT('',(-1.10379371669185E-15,2.,15.));
#468=CARTESIAN_POINT('',(-1.10379371669185E-15,2.,0.));
#469=CARTESIAN_POINT('',(15.,2.,15.));
#470=CARTESIAN_POINT('',(15.,2.,15.));
#471=CARTESIAN_POINT('',(15.,2.,0.));
#472=CARTESIAN_POINT('Origin',(-1.10379371669185E-15,2.,0.));
#473=CARTESIAN_POINT('',(0.,0.,0.));
#474=CARTESIAN_POINT('',(-1.10379371669185E-15,2.,0.));
#475=CARTESIAN_POINT('',(0.,0.,15.));
#476=CARTESIAN_POINT('',(0.,0.,0.));
#477=CARTESIAN_POINT('',(-1.10379371669185E-15,2.,15.));
#478=CARTESIAN_POINT('Origin',(15.,5.99999999999999,0.));
#479=CARTESIAN_POINT('',(15.,5.99999999999999,0.));
#480=CARTESIAN_POINT('',(15.,5.99999999999999,0.));
#481=CARTESIAN_POINT('',(15.,5.99999999999999,15.));
#482=CARTESIAN_POINT('',(15.,5.99999999999999,15.));
#483=CARTESIAN_POINT('',(15.,5.99999999999999,0.));
#484=CARTESIAN_POINT('Origin',(35.,6.00000000000001,0.));
#485=CARTESIAN_POINT('',(35.,6.00000000000001,0.));
#486=CARTESIAN_POINT('',(35.,6.00000000000001,0.));
#487=CARTESIAN_POINT('',(35.,6.00000000000001,15.));
#488=CARTESIAN_POINT('',(35.,6.00000000000001,15.));
#489=CARTESIAN_POINT('',(35.,6.00000000000001,0.));
#490=CARTESIAN_POINT('Origin',(35.,2.,0.));
#491=CARTESIAN_POINT('',(35.,2.,0.));
#492=CARTESIAN_POINT('',(35.,2.,15.));
#493=CARTESIAN_POINT('Origin',(50.,6.77355986885501E-15,0.));
#494=CARTESIAN_POINT('',(50.,6.77355986885501E-15,0.));
#495=CARTESIAN_POINT('',(50.,6.77355986885501E-15,0.));
#496=CARTESIAN_POINT('',(50.,6.77355986885501E-15,15.));
#497=CARTESIAN_POINT('',(50.,6.77355986885501E-15,15.));
#498=CARTESIAN_POINT('',(50.,6.77355986885501E-15,0.));
#499=CARTESIAN_POINT('Origin',(33.,-7.88860905221048E-31,0.));
#500=CARTESIAN_POINT('',(33.,-7.88860905221048E-31,0.));
#501=CARTESIAN_POINT('',(33.,-7.88860905221048E-31,0.));
#502=CARTESIAN_POINT('',(33.,-7.88860905221048E-31,15.));
#503=CARTESIAN_POINT('',(33.,-7.88860905221048E-31,15.));
#504=CARTESIAN_POINT('',(33.,-7.88860905221048E-31,0.));
#505=CARTESIAN_POINT('Origin',(33.,4.,0.));
#506=CARTESIAN_POINT('',(33.,4.,0.));
#507=CARTESIAN_POINT('',(33.,4.,0.));
#508=CARTESIAN_POINT('',(33.,4.,15.));
#509=CARTESIAN_POINT('',(33.,4.,15.));
#510=CARTESIAN_POINT('',(33.,4.,0.));
#511=CARTESIAN_POINT('Origin',(17.,3.99999999999999,0.));
#512=CARTESIAN_POINT('',(17.,3.99999999999999,0.));
#513=CARTESIAN_POINT('',(17.,3.99999999999999,0.));
#514=CARTESIAN_POINT('',(17.,3.99999999999999,15.));
#515=CARTESIAN_POINT('',(17.,3.99999999999999,15.));
#516=CARTESIAN_POINT('',(17.,3.99999999999999,0.));
#517=CARTESIAN_POINT('Origin',(17.,3.94430452610503E-31,0.));
#518=CARTESIAN_POINT('',(17.,3.94430452610503E-31,0.));
#519=CARTESIAN_POINT('',(17.,3.94430452610503E-31,0.));
#520=CARTESIAN_POINT('',(17.,3.94430452610503E-31,15.));
#521=CARTESIAN_POINT('',(17.,3.94430452610503E-31,15.));
#522=CARTESIAN_POINT('',(17.,3.94430452610503E-31,0.));
#523=CARTESIAN_POINT('Origin',(0.,0.,0.));
#524=CARTESIAN_POINT('',(0.,0.,0.));
#525=CARTESIAN_POINT('',(0.,0.,15.));
#526=CARTESIAN_POINT('Origin',(25.,2.46666666666667,15.));
#527=CARTESIAN_POINT('Origin',(25.,2.46666666666667,0.));
#528=UNCERTAINTY_MEASURE_WITH_UNIT(LENGTH_MEASURE(0.01),#532,
'DISTANCE_ACCURACY_VALUE',
'Maximum model space distance between geometric entities at asserted c
onnectivities');
#529=UNCERTAINTY_MEASURE_WITH_UNIT(LENGTH_MEASURE(0.01),#532,
'DISTANCE_ACCURACY_VALUE',
'Maximum model space distance between geometric entities at asserted c
onnectivities');
#530=(
GEOMETRIC_REPRESENTATION_CONTEXT(3)
GLOBAL_UNCERTAINTY_ASSIGNED_CONTEXT((#528))
GLOBAL_UNIT_ASSIGNED_CONTEXT((#532,#535,#534))
REPRESENTATION_CONTEXT('','3D')
);
#531=(
GEOMETRIC_REPRESENTATION_CONTEXT(3)
GLOBAL_UNCERTAINTY_ASSIGNED_CONTEXT((#529))
GLOBAL_UNIT_ASSIGNED_CONTEXT((#532,#535,#534))
REPRESENTATION_CONTEXT('','3D')
);
#532=(
LENGTH_UNIT()
NAMED_UNIT(*)
SI_UNIT(.MILLI.,.METRE.)
);
#533=(
LENGTH_UNIT()
NAMED_UNIT(*)
SI_UNIT(.CENTI.,.METRE.)
);
#534=(
NAMED_UNIT(*)
SI_UNIT($,.STERADIAN.)
SOLID_ANGLE_UNIT()
);
#535=(
NAMED_UNIT(*)
PLANE_ANGLE_UNIT()
SI_UNIT($,.RADIAN.)
);
#536=SHAPE_DEFINITION_REPRESENTATION(#537,#538);
#537=PRODUCT_DEFINITION_SHAPE('',$,#540);
#538=SHAPE_REPRESENTATION('',(#340),#530);
#539=PRODUCT_DEFINITION_CONTEXT('part definition',#544,'design');
#540=PRODUCT_DEFINITION('P_metal_2','P_metal_2',#541,#539);
#541=PRODUCT_DEFINITION_FORMATION('',$,#546);
#542=PRODUCT_RELATED_PRODUCT_CATEGORY('P_metal_2','P_metal_2',(#546));
#543=APPLICATION_PROTOCOL_DEFINITION('international standard',
'automotive_design',2009,#544);
#544=APPLICATION_CONTEXT(
'Core Data for Automotive Mechanical Design Process');
#545=PRODUCT_CONTEXT('part definition',#544,'mechanical');
#546=PRODUCT('P_metal_2','P_metal_2',$,(#545));
#547=PRESENTATION_STYLE_ASSIGNMENT((#548));
#548=SURFACE_STYLE_USAGE(.BOTH.,#549);
#549=SURFACE_SIDE_STYLE('',(#550));
#550=SURFACE_STYLE_FILL_AREA(#551);
#551=FILL_AREA_STYLE('',(#552));
#552=FILL_AREA_STYLE_COLOUR('',#553);
#553=COLOUR_RGB('',0.749019607843137,0.749019607843137,0.749019607843137);
ENDSEC;
END-ISO-10303-21;
