ISO-10303-21;
HEADER;
/* Generated by software containing ST-Developer
 * from STEP Tools, Inc. (www.steptools.com) 
 */

FILE_DESCRIPTION(
/* description */ (''),
/* implementation_level */ '2;1');

FILE_NAME(
/* name */ 
'C:\\Users\\Aeris\\Desktop\\XAVIER PICANON\\cao pers\\Projet - Sacoche
 pour Magic - The Gathering\\3 - M\X\E9dias\\Transfert de fichiers\\St
eps 3D\\Axe court.stp',
/* time_stamp */ '2019-07-16T08:15:25+02:00',
/* author */ ('Aeris'),
/* organization */ (''),
/* preprocessor_version */ 'ST-DEVELOPER v17',
/* originating_system */ 'Autodesk Inventor 2019',
/* authorisation */ '');

FILE_SCHEMA (('AUTOMOTIVE_DESIGN { 1 0 10303 214 3 1 1 }'));
ENDSEC;

DATA;
#10=MECHANICAL_DESIGN_GEOMETRIC_PRESENTATION_REPRESENTATION('',(#13),#248);
#11=SHAPE_REPRESENTATION_RELATIONSHIP('SRR','None',#255,#12);
#12=ADVANCED_BREP_SHAPE_REPRESENTATION('',(#14),#247);
#13=STYLED_ITEM('',(#265),#14);
#14=MANIFOLD_SOLID_BREP('Solide1',#124);
#15=FACE_BOUND('',#42,.T.);
#16=CONICAL_SURFACE('',#155,0.55,0.785398163397448);
#17=LINE('',#228,#20);
#18=LINE('',#233,#21);
#19=LINE('',#240,#22);
#20=VECTOR('',#188,2.5);
#21=VECTOR('',#193,0.55);
#22=VECTOR('',#202,0.8);
#23=CYLINDRICAL_SURFACE('',#152,2.5);
#24=CYLINDRICAL_SURFACE('',#160,0.8);
#25=PLANE('',#151);
#26=PLANE('',#159);
#27=PLANE('',#163);
#28=FACE_OUTER_BOUND('',#35,.T.);
#29=FACE_OUTER_BOUND('',#36,.T.);
#30=FACE_OUTER_BOUND('',#37,.T.);
#31=FACE_OUTER_BOUND('',#38,.T.);
#32=FACE_OUTER_BOUND('',#39,.T.);
#33=FACE_OUTER_BOUND('',#40,.T.);
#34=FACE_OUTER_BOUND('',#41,.T.);
#35=EDGE_LOOP('',(#84,#85,#86,#87,#88,#89,#90));
#36=EDGE_LOOP('',(#91,#92));
#37=EDGE_LOOP('',(#93,#94,#95,#96,#97,#98,#99));
#38=EDGE_LOOP('',(#100,#101,#102,#103,#104));
#39=EDGE_LOOP('',(#105));
#40=EDGE_LOOP('',(#106,#107,#108,#109,#110,#111));
#41=EDGE_LOOP('',(#112,#113));
#42=EDGE_LOOP('',(#114,#115));
#43=CIRCLE('',#145,2.5);
#44=CIRCLE('',#146,2.5);
#45=CIRCLE('',#147,1.);
#46=CIRCLE('',#148,1.5);
#47=CIRCLE('',#149,1.5);
#48=CIRCLE('',#150,2.5);
#49=CIRCLE('',#153,2.5);
#50=CIRCLE('',#154,2.5);
#51=CIRCLE('',#156,0.3);
#52=CIRCLE('',#157,0.8);
#53=CIRCLE('',#158,0.8);
#54=CIRCLE('',#161,0.8);
#55=CIRCLE('',#162,0.8);
#56=VERTEX_POINT('',#211);
#57=VERTEX_POINT('',#212);
#58=VERTEX_POINT('',#214);
#59=VERTEX_POINT('',#216);
#60=VERTEX_POINT('',#218);
#61=VERTEX_POINT('',#224);
#62=VERTEX_POINT('',#225);
#63=VERTEX_POINT('',#230);
#64=VERTEX_POINT('',#232);
#65=VERTEX_POINT('',#234);
#66=VERTEX_POINT('',#239);
#67=VERTEX_POINT('',#241);
#68=EDGE_CURVE('',#56,#57,#43,.T.);
#69=EDGE_CURVE('',#57,#58,#44,.T.);
#70=EDGE_CURVE('',#58,#59,#45,.T.);
#71=EDGE_CURVE('',#59,#60,#46,.T.);
#72=EDGE_CURVE('',#60,#59,#47,.T.);
#73=EDGE_CURVE('',#58,#56,#48,.T.);
#74=EDGE_CURVE('',#61,#62,#49,.T.);
#75=EDGE_CURVE('',#62,#61,#50,.T.);
#76=EDGE_CURVE('',#62,#57,#17,.T.);
#77=EDGE_CURVE('',#63,#63,#51,.T.);
#78=EDGE_CURVE('',#63,#64,#18,.T.);
#79=EDGE_CURVE('',#64,#65,#52,.T.);
#80=EDGE_CURVE('',#65,#64,#53,.T.);
#81=EDGE_CURVE('',#65,#66,#19,.T.);
#82=EDGE_CURVE('',#66,#67,#54,.T.);
#83=EDGE_CURVE('',#67,#66,#55,.T.);
#84=ORIENTED_EDGE('',*,*,#68,.T.);
#85=ORIENTED_EDGE('',*,*,#69,.T.);
#86=ORIENTED_EDGE('',*,*,#70,.T.);
#87=ORIENTED_EDGE('',*,*,#71,.T.);
#88=ORIENTED_EDGE('',*,*,#72,.T.);
#89=ORIENTED_EDGE('',*,*,#70,.F.);
#90=ORIENTED_EDGE('',*,*,#73,.T.);
#91=ORIENTED_EDGE('',*,*,#72,.F.);
#92=ORIENTED_EDGE('',*,*,#71,.F.);
#93=ORIENTED_EDGE('',*,*,#74,.F.);
#94=ORIENTED_EDGE('',*,*,#75,.F.);
#95=ORIENTED_EDGE('',*,*,#76,.T.);
#96=ORIENTED_EDGE('',*,*,#68,.F.);
#97=ORIENTED_EDGE('',*,*,#73,.F.);
#98=ORIENTED_EDGE('',*,*,#69,.F.);
#99=ORIENTED_EDGE('',*,*,#76,.F.);
#100=ORIENTED_EDGE('',*,*,#77,.T.);
#101=ORIENTED_EDGE('',*,*,#78,.T.);
#102=ORIENTED_EDGE('',*,*,#79,.T.);
#103=ORIENTED_EDGE('',*,*,#80,.T.);
#104=ORIENTED_EDGE('',*,*,#78,.F.);
#105=ORIENTED_EDGE('',*,*,#77,.F.);
#106=ORIENTED_EDGE('',*,*,#79,.F.);
#107=ORIENTED_EDGE('',*,*,#80,.F.);
#108=ORIENTED_EDGE('',*,*,#81,.T.);
#109=ORIENTED_EDGE('',*,*,#82,.T.);
#110=ORIENTED_EDGE('',*,*,#83,.T.);
#111=ORIENTED_EDGE('',*,*,#81,.F.);
#112=ORIENTED_EDGE('',*,*,#74,.T.);
#113=ORIENTED_EDGE('',*,*,#75,.T.);
#114=ORIENTED_EDGE('',*,*,#83,.F.);
#115=ORIENTED_EDGE('',*,*,#82,.F.);
#116=TOROIDAL_SURFACE('',#144,1.5,1.);
#117=ADVANCED_FACE('',(#28),#116,.T.);
#118=ADVANCED_FACE('',(#29),#25,.T.);
#119=ADVANCED_FACE('',(#30),#23,.T.);
#120=ADVANCED_FACE('',(#31),#16,.T.);
#121=ADVANCED_FACE('',(#32),#26,.T.);
#122=ADVANCED_FACE('',(#33),#24,.T.);
#123=ADVANCED_FACE('',(#34,#15),#27,.T.);
#124=CLOSED_SHELL('',(#117,#118,#119,#120,#121,#122,#123));
#125=DERIVED_UNIT_ELEMENT(#127,1.);
#126=DERIVED_UNIT_ELEMENT(#250,3.);
#127=(
MASS_UNIT()
NAMED_UNIT(*)
SI_UNIT($,.GRAM.)
);
#128=DERIVED_UNIT((#125,#126));
#129=MEASURE_REPRESENTATION_ITEM('density measure',
POSITIVE_RATIO_MEASURE(1.),#128);
#130=PROPERTY_DEFINITION_REPRESENTATION(#135,#132);
#131=PROPERTY_DEFINITION_REPRESENTATION(#136,#133);
#132=REPRESENTATION('material name',(#134),#247);
#133=REPRESENTATION('density',(#129),#247);
#134=DESCRIPTIVE_REPRESENTATION_ITEM('G\X\E9n\X\E9rique','G\X\E9n\X\E9
rique');
#135=PROPERTY_DEFINITION('material property','material name',#257);
#136=PROPERTY_DEFINITION('material property','density of part',#257);
#137=DATE_TIME_ROLE('creation_date');
#138=APPLIED_DATE_AND_TIME_ASSIGNMENT(#139,#137,(#257));
#139=DATE_AND_TIME(#140,#141);
#140=CALENDAR_DATE(2019,11,7);
#141=LOCAL_TIME(9,12,28.,#142);
#142=COORDINATED_UNIVERSAL_TIME_OFFSET(0,0,.BEHIND.);
#143=AXIS2_PLACEMENT_3D('placement',#209,#164,#165);
#144=AXIS2_PLACEMENT_3D('',#210,#166,#167);
#145=AXIS2_PLACEMENT_3D('',#213,#168,#169);
#146=AXIS2_PLACEMENT_3D('',#215,#170,#171);
#147=AXIS2_PLACEMENT_3D('',#217,#172,#173);
#148=AXIS2_PLACEMENT_3D('',#219,#174,#175);
#149=AXIS2_PLACEMENT_3D('',#220,#176,#177);
#150=AXIS2_PLACEMENT_3D('',#221,#178,#179);
#151=AXIS2_PLACEMENT_3D('',#222,#180,#181);
#152=AXIS2_PLACEMENT_3D('',#223,#182,#183);
#153=AXIS2_PLACEMENT_3D('',#226,#184,#185);
#154=AXIS2_PLACEMENT_3D('',#227,#186,#187);
#155=AXIS2_PLACEMENT_3D('',#229,#189,#190);
#156=AXIS2_PLACEMENT_3D('',#231,#191,#192);
#157=AXIS2_PLACEMENT_3D('',#235,#194,#195);
#158=AXIS2_PLACEMENT_3D('',#236,#196,#197);
#159=AXIS2_PLACEMENT_3D('',#237,#198,#199);
#160=AXIS2_PLACEMENT_3D('',#238,#200,#201);
#161=AXIS2_PLACEMENT_3D('',#242,#203,#204);
#162=AXIS2_PLACEMENT_3D('',#243,#205,#206);
#163=AXIS2_PLACEMENT_3D('',#244,#207,#208);
#164=DIRECTION('axis',(0.,0.,1.));
#165=DIRECTION('refdir',(1.,0.,0.));
#166=DIRECTION('center_axis',(1.,1.11022302462516E-16,0.));
#167=DIRECTION('ref_axis',(0.,0.,-1.));
#168=DIRECTION('center_axis',(-1.,-1.11022302462516E-16,0.));
#169=DIRECTION('ref_axis',(1.11022302462516E-16,-1.,1.83697019872103E-16));
#170=DIRECTION('center_axis',(-1.,-1.11022302462516E-16,0.));
#171=DIRECTION('ref_axis',(1.11022302462516E-16,-1.,1.83697019872103E-16));
#172=DIRECTION('center_axis',(1.11022302462516E-16,-1.,-1.22464679914735E-16));
#173=DIRECTION('ref_axis',(0.,-1.22464679914735E-16,1.));
#174=DIRECTION('center_axis',(1.,1.11022302462516E-16,0.));
#175=DIRECTION('ref_axis',(1.11022302462516E-16,-1.,1.83697019872103E-16));
#176=DIRECTION('center_axis',(1.,1.11022302462516E-16,0.));
#177=DIRECTION('ref_axis',(1.11022302462516E-16,-1.,1.83697019872103E-16));
#178=DIRECTION('center_axis',(-1.,-1.11022302462516E-16,0.));
#179=DIRECTION('ref_axis',(1.11022302462516E-16,-1.,1.83697019872103E-16));
#180=DIRECTION('center_axis',(-1.,-1.11022302462516E-16,0.));
#181=DIRECTION('ref_axis',(0.,0.,1.));
#182=DIRECTION('center_axis',(1.,1.11022302462516E-16,0.));
#183=DIRECTION('ref_axis',(0.,1.,0.));
#184=DIRECTION('center_axis',(1.,1.11022302462516E-16,0.));
#185=DIRECTION('ref_axis',(0.,0.,-1.));
#186=DIRECTION('center_axis',(1.,1.11022302462516E-16,0.));
#187=DIRECTION('ref_axis',(0.,0.,-1.));
#188=DIRECTION('',(-1.,-1.11022302462516E-16,0.));
#189=DIRECTION('center_axis',(-1.,-1.11022302462516E-16,0.));
#190=DIRECTION('ref_axis',(3.02788097625043E-17,-1.,0.));
#191=DIRECTION('center_axis',(-1.,-1.11022302462516E-16,0.));
#192=DIRECTION('ref_axis',(1.11022302462516E-16,-1.,0.));
#193=DIRECTION('',(-0.707106781186548,0.707106781186548,8.65956056235494E-17));
#194=DIRECTION('center_axis',(1.,1.11022302462516E-16,0.));
#195=DIRECTION('ref_axis',(0.,-1.,0.));
#196=DIRECTION('center_axis',(1.,1.11022302462516E-16,0.));
#197=DIRECTION('ref_axis',(0.,-1.,0.));
#198=DIRECTION('center_axis',(1.,1.11022302462516E-16,0.));
#199=DIRECTION('ref_axis',(0.,0.,-1.));
#200=DIRECTION('center_axis',(1.,1.11022302462516E-16,0.));
#201=DIRECTION('ref_axis',(0.,1.,0.));
#202=DIRECTION('',(-1.,-1.11022302462516E-16,0.));
#203=DIRECTION('center_axis',(1.,1.11022302462516E-16,0.));
#204=DIRECTION('ref_axis',(0.,0.,-1.));
#205=DIRECTION('center_axis',(1.,1.11022302462516E-16,0.));
#206=DIRECTION('ref_axis',(0.,0.,-1.));
#207=DIRECTION('center_axis',(1.,1.11022302462516E-16,0.));
#208=DIRECTION('ref_axis',(0.,0.,-1.));
#209=CARTESIAN_POINT('',(0.,0.,0.));
#210=CARTESIAN_POINT('Origin',(-0.5,-2.77555756156289E-17,0.));
#211=CARTESIAN_POINT('',(-0.5,2.5,-7.65404249467096E-16));
#212=CARTESIAN_POINT('',(-0.5,-2.5,-3.06161699786838E-16));
#213=CARTESIAN_POINT('Origin',(-0.5,-2.77555756156289E-17,0.));
#214=CARTESIAN_POINT('',(-0.5,-3.33917275402467E-16,2.5));
#215=CARTESIAN_POINT('Origin',(-0.5,-2.77555756156289E-17,0.));
#216=CARTESIAN_POINT('',(-1.5,-3.22474897950248E-16,1.5));
#217=CARTESIAN_POINT('Origin',(-0.5,-2.11452595487732E-16,1.5));
#218=CARTESIAN_POINT('',(-1.5,1.5,-9.18485099360515E-17));
#219=CARTESIAN_POINT('Origin',(-1.5,-1.38777878078145E-16,0.));
#220=CARTESIAN_POINT('Origin',(-1.5,-1.38777878078145E-16,0.));
#221=CARTESIAN_POINT('Origin',(-0.5,-2.77555756156289E-17,0.));
#222=CARTESIAN_POINT('Origin',(-1.5,2.5,0.));
#223=CARTESIAN_POINT('Origin',(-0.75,-5.55111512312579E-17,0.));
#224=CARTESIAN_POINT('',(4.62223186652945E-33,2.5,0.));
#225=CARTESIAN_POINT('',(4.16333634234434E-16,-2.5,-3.06161699786838E-16));
#226=CARTESIAN_POINT('Origin',(2.77555756156289E-16,2.77555756156289E-17,
0.));
#227=CARTESIAN_POINT('Origin',(2.77555756156289E-16,2.77555756156289E-17,
0.));
#228=CARTESIAN_POINT('',(-0.75,-2.5,-3.06161699786838E-16));
#229=CARTESIAN_POINT('Origin',(3.25,3.88578058618805E-16,0.));
#230=CARTESIAN_POINT('',(3.5,0.3,-3.67394039744206E-17));
#231=CARTESIAN_POINT('Origin',(3.5,4.16333634234434E-16,0.));
#232=CARTESIAN_POINT('',(3.,0.8,9.79717439317882E-17));
#233=CARTESIAN_POINT('',(3.25,0.55,6.73555739531044E-17));
#234=CARTESIAN_POINT('',(3.,-0.799999999999999,-9.79717439317882E-17));
#235=CARTESIAN_POINT('Origin',(3.,3.60822483003176E-16,0.));
#236=CARTESIAN_POINT('Origin',(3.,3.60822483003176E-16,0.));
#237=CARTESIAN_POINT('Origin',(3.5,4.16333634234434E-16,0.));
#238=CARTESIAN_POINT('Origin',(1.75,2.22044604925031E-16,0.));
#239=CARTESIAN_POINT('',(0.,-0.799999999999999,-9.79717439317882E-17));
#240=CARTESIAN_POINT('',(1.75,-0.799999999999999,-9.79717439317882E-17));
#241=CARTESIAN_POINT('',(0.,0.8,0.));
#242=CARTESIAN_POINT('Origin',(0.,2.77555756156289E-17,0.));
#243=CARTESIAN_POINT('Origin',(0.,2.77555756156289E-17,0.));
#244=CARTESIAN_POINT('Origin',(0.,0.8,0.));
#245=UNCERTAINTY_MEASURE_WITH_UNIT(LENGTH_MEASURE(0.01),#249,
'DISTANCE_ACCURACY_VALUE',
'Maximum model space distance between geometric entities at asserted c
onnectivities');
#246=UNCERTAINTY_MEASURE_WITH_UNIT(LENGTH_MEASURE(0.01),#249,
'DISTANCE_ACCURACY_VALUE',
'Maximum model space distance between geometric entities at asserted c
onnectivities');
#247=(
GEOMETRIC_REPRESENTATION_CONTEXT(3)
GLOBAL_UNCERTAINTY_ASSIGNED_CONTEXT((#245))
GLOBAL_UNIT_ASSIGNED_CONTEXT((#249,#252,#251))
REPRESENTATION_CONTEXT('','3D')
);
#248=(
GEOMETRIC_REPRESENTATION_CONTEXT(3)
GLOBAL_UNCERTAINTY_ASSIGNED_CONTEXT((#246))
GLOBAL_UNIT_ASSIGNED_CONTEXT((#249,#252,#251))
REPRESENTATION_CONTEXT('','3D')
);
#249=(
LENGTH_UNIT()
NAMED_UNIT(*)
SI_UNIT(.MILLI.,.METRE.)
);
#250=(
LENGTH_UNIT()
NAMED_UNIT(*)
SI_UNIT(.CENTI.,.METRE.)
);
#251=(
NAMED_UNIT(*)
SI_UNIT($,.STERADIAN.)
SOLID_ANGLE_UNIT()
);
#252=(
NAMED_UNIT(*)
PLANE_ANGLE_UNIT()
SI_UNIT($,.RADIAN.)
);
#253=SHAPE_DEFINITION_REPRESENTATION(#254,#255);
#254=PRODUCT_DEFINITION_SHAPE('',$,#257);
#255=SHAPE_REPRESENTATION('',(#143),#247);
#256=PRODUCT_DEFINITION_CONTEXT('part definition',#261,'design');
#257=PRODUCT_DEFINITION('Fermoire - Axe court',
'P - Fermoir - Axe court',#258,#256);
#258=PRODUCT_DEFINITION_FORMATION('',$,#263);
#259=PRODUCT_RELATED_PRODUCT_CATEGORY('P - Fermoir - Axe court',
'P - Fermoir - Axe court',(#263));
#260=APPLICATION_PROTOCOL_DEFINITION('international standard',
'automotive_design',2009,#261);
#261=APPLICATION_CONTEXT(
'Core Data for Automotive Mechanical Design Process');
#262=PRODUCT_CONTEXT('part definition',#261,'mechanical');
#263=PRODUCT('Fermoire - Axe court','P - Fermoir - Axe court',$,(#262));
#264=PRESENTATION_STYLE_ASSIGNMENT((#266));
#265=PRESENTATION_STYLE_ASSIGNMENT((#267));
#266=SURFACE_STYLE_USAGE(.BOTH.,#268);
#267=SURFACE_STYLE_USAGE(.BOTH.,#269);
#268=SURFACE_SIDE_STYLE('',(#270));
#269=SURFACE_SIDE_STYLE('',(#271));
#270=SURFACE_STYLE_FILL_AREA(#272);
#271=SURFACE_STYLE_FILL_AREA(#273);
#272=FILL_AREA_STYLE('',(#274));
#273=FILL_AREA_STYLE('',(#275));
#274=FILL_AREA_STYLE_COLOUR('',#276);
#275=FILL_AREA_STYLE_COLOUR('',#277);
#276=COLOUR_RGB('',0.745098039215686,0.737254901960784,0.729411764705882);
#277=COLOUR_RGB('',1.,0.945098039215686,0.694117647058824);
ENDSEC;
END-ISO-10303-21;
