ISO-10303-21;
HEADER;
FILE_DESCRIPTION(('STEP AP214'),'1');
FILE_NAME(' indC.stp','2019-07-08T06:12:42',(' '),(' '),'Spatial InterOp 3D',' ',' ');
FILE_SCHEMA(('AUTOMOTIVE_DESIGN { 1 0 10303 214 1 1 1 1 }'));
ENDSEC;
DATA;
#1=MECHANICAL_DESIGN_GEOMETRIC_PRESENTATION_REPRESENTATION(' ',(#22,#23,#24,#25,#26,#27,#28,#29,#30,#31,#32,#33,#34,#35,#36,#37,#38,#39,#40,#41),#6);
#2=PRODUCT_DEFINITION_CONTEXT('',#42,'design');
#3=APPLICATION_PROTOCOL_DEFINITION('INTERNATIONAL STANDARD','automotive_design',1994,#42);
#4=PRODUCT_CATEGORY_RELATIONSHIP('NONE','NONE',#43,#44);
#5=SHAPE_DEFINITION_REPRESENTATION(#45,#46);
#6= (GEOMETRIC_REPRESENTATION_CONTEXT(3)GLOBAL_UNCERTAINTY_ASSIGNED_CONTEXT((#49))GLOBAL_UNIT_ASSIGNED_CONTEXT((#51,#52,#53))REPRESENTATION_CONTEXT('NONE','WORKSPACE'));
#7=PROPERTY_DEFINITION_REPRESENTATION(#55,#56);
#8=GENERAL_PROPERTY_ASSOCIATION('','',#57,#55);
#9=PROPERTY_DEFINITION_REPRESENTATION(#58,#59);
#10=GENERAL_PROPERTY_ASSOCIATION('','',#60,#58);
#11=PROPERTY_DEFINITION_REPRESENTATION(#61,#62);
#12=GENERAL_PROPERTY_ASSOCIATION('','',#63,#61);
#13=PROPERTY_DEFINITION_REPRESENTATION(#64,#65);
#14=GENERAL_PROPERTY_ASSOCIATION('','',#66,#64);
#15=PROPERTY_DEFINITION_REPRESENTATION(#67,#68);
#16=GENERAL_PROPERTY_ASSOCIATION('','',#69,#67);
#17=PROPERTY_DEFINITION_REPRESENTATION(#70,#71);
#18=GENERAL_PROPERTY_ASSOCIATION('','',#72,#70);
#22=STYLED_ITEM('',(#73),#74);
#23=STYLED_ITEM('',(#75),#76);
#24=STYLED_ITEM('',(#77),#78);
#25=STYLED_ITEM('',(#79),#80);
#26=STYLED_ITEM('',(#81),#82);
#27=STYLED_ITEM('',(#83),#84);
#28=STYLED_ITEM('',(#85),#86);
#29=STYLED_ITEM('',(#87),#88);
#30=STYLED_ITEM('',(#89),#90);
#31=STYLED_ITEM('',(#91),#92);
#32=STYLED_ITEM('',(#93),#94);
#33=STYLED_ITEM('',(#95),#96);
#34=STYLED_ITEM('',(#97),#98);
#35=STYLED_ITEM('',(#99),#100);
#36=STYLED_ITEM('',(#101),#102);
#37=STYLED_ITEM('',(#103),#104);
#38=STYLED_ITEM('',(#105),#106);
#39=STYLED_ITEM('',(#107),#108);
#40=STYLED_ITEM('',(#109),#110);
#41=STYLED_ITEM('',(#111),#112);
#42=APPLICATION_CONTEXT(' ');
#43=PRODUCT_CATEGORY('part','NONE');
#44=PRODUCT_RELATED_PRODUCT_CATEGORY('detail',' ',(#113));
#45=PRODUCT_DEFINITION_SHAPE('NONE','NONE',#114);
#46=ADVANCED_BREP_SHAPE_REPRESENTATION('554 239 axe rotation d\X2\00E9\X0\collet\X2\00E9\X0\ indC',(#112,#115),#6);
#49=UNCERTAINTY_MEASURE_WITH_UNIT(LENGTH_MEASURE(0.001),#51,'','');
#51= (CONVERSION_BASED_UNIT('MILLIMETRE',#118)LENGTH_UNIT()NAMED_UNIT(#121));
#52= (NAMED_UNIT(#123)PLANE_ANGLE_UNIT()SI_UNIT($,.RADIAN.));
#53= (NAMED_UNIT(#123)SOLID_ANGLE_UNIT()SI_UNIT($,.STERADIAN.));
#55=PROPERTY_DEFINITION('PdmObjectId','',#114);
#56=REPRESENTATION('',(#129),#6);
#57=GENERAL_PROPERTY('','19_f9905b11-7db6-4044-adc6-9a9a8a5dda79&3_219983_4_0','');
#58=PROPERTY_DEFINITION('Finition','',#114);
#59=REPRESENTATION('',(#130),#6);
#60=GENERAL_PROPERTY('','-','');
#61=PROPERTY_DEFINITION('Propri\X2\00E9\X0\t\X2\00E9\X0\ recyclabilit\X2\00E9\X0\','',#114);
#62=REPRESENTATION('',(#131),#6);
#63=GENERAL_PROPERTY('','<non sp\X2\00E9\X0\cifi\X2\00E9\X0\ >','');
#64=PROPERTY_DEFINITION('Type de pi\X2\00E8\X0\ce','',#114);
#65=REPRESENTATION('',(#132),#6);
#66=GENERAL_PROPERTY('','< non sp\X2\00E9\X0\cifi\X2\00E9\X0\ >','');
#67=PROPERTY_DEFINITION('CreationDate','',#114);
#68=REPRESENTATION('',(#133),#6);
#69=GENERAL_PROPERTY('','06/06/2019 08:30:00','');
#70=PROPERTY_DEFINITION('Minor Revision','',#114);
#71=REPRESENTATION('',(#134),#6);
#72=GENERAL_PROPERTY('','2','');
#73=PRESENTATION_STYLE_ASSIGNMENT((#135));
#74=ADVANCED_FACE('',(#136,#137),#138,.F.);
#75=PRESENTATION_STYLE_ASSIGNMENT((#139));
#76=ADVANCED_FACE('',(#140,#141),#142,.T.);
#77=PRESENTATION_STYLE_ASSIGNMENT((#143));
#78=ADVANCED_FACE('',(#144,#145),#146,.T.);
#79=PRESENTATION_STYLE_ASSIGNMENT((#147));
#80=ADVANCED_FACE('',(#148),#149,.T.);
#81=PRESENTATION_STYLE_ASSIGNMENT((#150));
#82=ADVANCED_FACE('',(#151,#152),#153,.F.);
#83=PRESENTATION_STYLE_ASSIGNMENT((#154));
#84=ADVANCED_FACE('',(#155,#156),#157,.F.);
#85=PRESENTATION_STYLE_ASSIGNMENT((#158));
#86=ADVANCED_FACE('',(#159,#160),#161,.T.);
#87=PRESENTATION_STYLE_ASSIGNMENT((#162));
#88=ADVANCED_FACE('',(#163),#164,.F.);
#89=PRESENTATION_STYLE_ASSIGNMENT((#165));
#90=ADVANCED_FACE('',(#166),#167,.F.);
#91=PRESENTATION_STYLE_ASSIGNMENT((#168));
#92=ADVANCED_FACE('',(#169,#170),#171,.T.);
#93=PRESENTATION_STYLE_ASSIGNMENT((#172));
#94=ADVANCED_FACE('',(#173,#174),#175,.T.);
#95=PRESENTATION_STYLE_ASSIGNMENT((#176));
#96=ADVANCED_FACE('',(#177,#178),#179,.T.);
#97=PRESENTATION_STYLE_ASSIGNMENT((#180));
#98=ADVANCED_FACE('',(#181,#182),#183,.T.);
#99=PRESENTATION_STYLE_ASSIGNMENT((#184));
#100=ADVANCED_FACE('',(#185,#186),#187,.F.);
#101=PRESENTATION_STYLE_ASSIGNMENT((#188));
#102=ADVANCED_FACE('',(#189,#190),#191,.T.);
#103=PRESENTATION_STYLE_ASSIGNMENT((#192));
#104=ADVANCED_FACE('',(#193,#194),#195,.F.);
#105=PRESENTATION_STYLE_ASSIGNMENT((#196));
#106=ADVANCED_FACE('',(#197),#198,.T.);
#107=PRESENTATION_STYLE_ASSIGNMENT((#199));
#108=ADVANCED_FACE('',(#200),#201,.T.);
#109=PRESENTATION_STYLE_ASSIGNMENT((#202));
#110=ADVANCED_FACE('',(#203),#204,.T.);
#111=PRESENTATION_STYLE_ASSIGNMENT((#205));
#112=MANIFOLD_SOLID_BREP('554 239 axe rotation d\X2\00E9\X0\collet\X2\00E9\X0\ indC',#206);
#113=PRODUCT('554 239 axe rotation d\X2\00E9\X0\collet\X2\00E9\X0\ indC','554 239','axe rotation d\X2\00E9\X0\collet\X2\00E9\X0\',(#207));
#114=PRODUCT_DEFINITION('','NONE',#208,#2);
#115=AXIS2_PLACEMENT_3D('',#209,#210,#211);
#118=LENGTH_MEASURE_WITH_UNIT(LENGTH_MEASURE(1.0),#212);
#121=DIMENSIONAL_EXPONENTS(1.0,0.0,0.0,0.0,0.0,0.0,0.0);
#123=DIMENSIONAL_EXPONENTS(0.0,0.0,0.0,0.0,0.0,0.0,0.0);
#129=DESCRIPTIVE_REPRESENTATION_ITEM('','19_f9905b11-7db6-4044-adc6-9a9a8a5dda79&3_219983_4_0');
#130=DESCRIPTIVE_REPRESENTATION_ITEM('','-');
#131=DESCRIPTIVE_REPRESENTATION_ITEM('','<non sp\X2\00E9\X0\cifi\X2\00E9\X0\ >');
#132=DESCRIPTIVE_REPRESENTATION_ITEM('','< non sp\X2\00E9\X0\cifi\X2\00E9\X0\ >');
#133=DESCRIPTIVE_REPRESENTATION_ITEM('','06/06/2019 08:30:00');
#134=DESCRIPTIVE_REPRESENTATION_ITEM('','2');
#135=SURFACE_STYLE_USAGE(.BOTH.,#213);
#136=FACE_BOUND('',#214,.T.);
#137=FACE_OUTER_BOUND('',#215,.T.);
#138=PLANE('',#216);
#139=SURFACE_STYLE_USAGE(.BOTH.,#217);
#140=FACE_OUTER_BOUND('',#218,.T.);
#141=FACE_OUTER_BOUND('',#219,.T.);
#142=CYLINDRICAL_SURFACE('',#220,4.0);
#143=SURFACE_STYLE_USAGE(.BOTH.,#221);
#144=FACE_OUTER_BOUND('',#222,.T.);
#145=FACE_BOUND('',#223,.T.);
#146=PLANE('',#224);
#147=SURFACE_STYLE_USAGE(.BOTH.,#225);
#148=FACE_OUTER_BOUND('',#226,.T.);
#149=PLANE('',#227);
#150=SURFACE_STYLE_USAGE(.BOTH.,#228);
#151=FACE_OUTER_BOUND('',#229,.T.);
#152=FACE_OUTER_BOUND('',#230,.T.);
#153=TOROIDAL_SURFACE('',#231,2.65,0.2);
#154=SURFACE_STYLE_USAGE(.BOTH.,#232);
#155=FACE_BOUND('',#233,.T.);
#156=FACE_OUTER_BOUND('',#234,.T.);
#157=PLANE('',#235);
#158=SURFACE_STYLE_USAGE(.BOTH.,#236);
#159=FACE_OUTER_BOUND('',#237,.T.);
#160=FACE_OUTER_BOUND('',#238,.T.);
#161=CYLINDRICAL_SURFACE('',#239,2.45);
#162=SURFACE_STYLE_USAGE(.BOTH.,#240);
#163=FACE_OUTER_BOUND('',#241,.T.);
#164=PLANE('',#242);
#165=SURFACE_STYLE_USAGE(.BOTH.,#243);
#166=FACE_OUTER_BOUND('',#244,.T.);
#167=PLANE('',#245);
#168=SURFACE_STYLE_USAGE(.BOTH.,#246);
#169=FACE_OUTER_BOUND('',#247,.T.);
#170=FACE_OUTER_BOUND('',#248,.T.);
#171=CYLINDRICAL_SURFACE('',#249,2.45);
#172=SURFACE_STYLE_USAGE(.BOTH.,#250);
#173=FACE_BOUND('',#251,.T.);
#174=FACE_OUTER_BOUND('',#252,.T.);
#175=CONICAL_SURFACE('',#253,3.0,0.785398163397448);
#176=SURFACE_STYLE_USAGE(.BOTH.,#254);
#177=FACE_OUTER_BOUND('',#255,.T.);
#178=FACE_OUTER_BOUND('',#256,.T.);
#179=CYLINDRICAL_SURFACE('',#257,3.0);
#180=SURFACE_STYLE_USAGE(.BOTH.,#258);
#181=FACE_OUTER_BOUND('',#259,.T.);
#182=FACE_BOUND('',#260,.T.);
#183=CONICAL_SURFACE('',#261,2.33786796564403,0.785398163397447);
#184=SURFACE_STYLE_USAGE(.BOTH.,#262);
#185=FACE_OUTER_BOUND('',#263,.T.);
#186=FACE_OUTER_BOUND('',#264,.T.);
#187=TOROIDAL_SURFACE('',#265,2.55,0.3);
#188=SURFACE_STYLE_USAGE(.BOTH.,#266);
#189=FACE_OUTER_BOUND('',#267,.T.);
#190=FACE_OUTER_BOUND('',#268,.T.);
#191=CYLINDRICAL_SURFACE('',#269,2.25);
#192=SURFACE_STYLE_USAGE(.BOTH.,#270);
#193=FACE_OUTER_BOUND('',#271,.T.);
#194=FACE_OUTER_BOUND('',#272,.T.);
#195=TOROIDAL_SURFACE('',#273,2.45,0.2);
#196=SURFACE_STYLE_USAGE(.BOTH.,#274);
#197=FACE_OUTER_BOUND('',#275,.T.);
#198=PLANE('',#276);
#199=SURFACE_STYLE_USAGE(.BOTH.,#277);
#200=FACE_OUTER_BOUND('',#278,.T.);
#201=PLANE('',#279);
#202=SURFACE_STYLE_USAGE(.BOTH.,#280);
#203=FACE_OUTER_BOUND('',#281,.T.);
#204=PLANE('',#282);
#205=SURFACE_STYLE_USAGE(.BOTH.,#283);
#206=CLOSED_SHELL('',(#74,#76,#78,#80,#82,#84,#86,#88,#90,#92,#94,#96,#98,#100,#102,#104,#106,#108,#110));
#207=PRODUCT_CONTEXT('',#42,'mechanical');
#208=PRODUCT_DEFINITION_FORMATION_WITH_SPECIFIED_SOURCE('C','NONE',#113,.NOT_KNOWN.);
#209=CARTESIAN_POINT('',(0.0,0.0,0.0));
#210=DIRECTION('',(0.0,0.0,1.0));
#211=DIRECTION('',(1.0,0.0,0.0));
#212= (NAMED_UNIT(#121)LENGTH_UNIT()SI_UNIT(.MILLI.,.METRE.));
#213=SURFACE_SIDE_STYLE('',(#285));
#214=EDGE_LOOP('',(#286));
#215=EDGE_LOOP('',(#287));
#216=AXIS2_PLACEMENT_3D('',#288,#289,#290);
#217=SURFACE_SIDE_STYLE('',(#291));
#218=EDGE_LOOP('',(#292));
#219=EDGE_LOOP('',(#293));
#220=AXIS2_PLACEMENT_3D('',#294,#295,#296);
#221=SURFACE_SIDE_STYLE('',(#297));
#222=EDGE_LOOP('',(#298));
#223=EDGE_LOOP('',(#299,#300,#301,#302));
#224=AXIS2_PLACEMENT_3D('',#303,#304,#305);
#225=SURFACE_SIDE_STYLE('',(#306));
#226=EDGE_LOOP('',(#307,#308,#309,#310));
#227=AXIS2_PLACEMENT_3D('',#311,#312,#313);
#228=SURFACE_SIDE_STYLE('',(#314));
#229=EDGE_LOOP('',(#315));
#230=EDGE_LOOP('',(#316));
#231=AXIS2_PLACEMENT_3D('',#317,#318,#319);
#232=SURFACE_SIDE_STYLE('',(#320));
#233=EDGE_LOOP('',(#321));
#234=EDGE_LOOP('',(#322,#323,#324,#325));
#235=AXIS2_PLACEMENT_3D('',#326,#327,#328);
#236=SURFACE_SIDE_STYLE('',(#329));
#237=EDGE_LOOP('',(#330));
#238=EDGE_LOOP('',(#331));
#239=AXIS2_PLACEMENT_3D('',#332,#333,#334);
#240=SURFACE_SIDE_STYLE('',(#335));
#241=EDGE_LOOP('',(#336));
#242=AXIS2_PLACEMENT_3D('',#337,#338,#339);
#243=SURFACE_SIDE_STYLE('',(#340));
#244=EDGE_LOOP('',(#341));
#245=AXIS2_PLACEMENT_3D('',#342,#343,#344);
#246=SURFACE_SIDE_STYLE('',(#345));
#247=EDGE_LOOP('',(#346));
#248=EDGE_LOOP('',(#347));
#249=AXIS2_PLACEMENT_3D('',#348,#349,#350);
#250=SURFACE_SIDE_STYLE('',(#351));
#251=EDGE_LOOP('',(#352));
#252=EDGE_LOOP('',(#353));
#253=AXIS2_PLACEMENT_3D('',#354,#355,#356);
#254=SURFACE_SIDE_STYLE('',(#357));
#255=EDGE_LOOP('',(#358));
#256=EDGE_LOOP('',(#359));
#257=AXIS2_PLACEMENT_3D('',#360,#361,#362);
#258=SURFACE_SIDE_STYLE('',(#363));
#259=EDGE_LOOP('',(#364));
#260=EDGE_LOOP('',(#365));
#261=AXIS2_PLACEMENT_3D('',#366,#367,#368);
#262=SURFACE_SIDE_STYLE('',(#369));
#263=EDGE_LOOP('',(#370));
#264=EDGE_LOOP('',(#371));
#265=AXIS2_PLACEMENT_3D('',#372,#373,#374);
#266=SURFACE_SIDE_STYLE('',(#375));
#267=EDGE_LOOP('',(#376));
#268=EDGE_LOOP('',(#377));
#269=AXIS2_PLACEMENT_3D('',#378,#379,#380);
#270=SURFACE_SIDE_STYLE('',(#381));
#271=EDGE_LOOP('',(#382));
#272=EDGE_LOOP('',(#383));
#273=AXIS2_PLACEMENT_3D('',#384,#385,#386);
#274=SURFACE_SIDE_STYLE('',(#387));
#275=EDGE_LOOP('',(#388,#389,#390,#391));
#276=AXIS2_PLACEMENT_3D('',#392,#393,#394);
#277=SURFACE_SIDE_STYLE('',(#395));
#278=EDGE_LOOP('',(#396,#397,#398,#399));
#279=AXIS2_PLACEMENT_3D('',#400,#401,#402);
#280=SURFACE_SIDE_STYLE('',(#403));
#281=EDGE_LOOP('',(#404,#405,#406,#407));
#282=AXIS2_PLACEMENT_3D('',#408,#409,#410);
#283=SURFACE_SIDE_STYLE('',(#411));
#285=SURFACE_STYLE_FILL_AREA(#412);
#286=ORIENTED_EDGE('',*,*,#413,.F.);
#287=ORIENTED_EDGE('',*,*,#414,.T.);
#288=CARTESIAN_POINT('',(-28.2125551726272,10.0,243.616274222234));
#289=DIRECTION('',(2.7809396298354E-18,-1.0,6.12194047192236E-17));
#290=DIRECTION('',(0.0,-6.12194047192236E-17,-1.0));
#291=SURFACE_STYLE_FILL_AREA(#415);
#292=ORIENTED_EDGE('',*,*,#414,.F.);
#293=ORIENTED_EDGE('',*,*,#416,.F.);
#294=CARTESIAN_POINT('',(-31.4342329162024,11.5,243.762621468713));
#295=DIRECTION('',(-2.7809396298354E-18,1.0,-6.12194047192236E-17));
#296=DIRECTION('',(0.0,6.12194047192236E-17,1.0));
#297=SURFACE_STYLE_FILL_AREA(#417);
#298=ORIENTED_EDGE('',*,*,#416,.T.);
#299=ORIENTED_EDGE('',*,*,#418,.F.);
#300=ORIENTED_EDGE('',*,*,#419,.F.);
#301=ORIENTED_EDGE('',*,*,#420,.F.);
#302=ORIENTED_EDGE('',*,*,#421,.F.);
#303=CARTESIAN_POINT('',(-31.4342329162024,1.50000000000004,243.762621468713));
#304=DIRECTION('',(2.7809396298354E-18,-1.0,6.12194047192236E-17));
#305=DIRECTION('',(0.998969842969082,1.15555796663234E-33,-0.0453789911559009));
#306=SURFACE_STYLE_FILL_AREA(#422);
#307=ORIENTED_EDGE('',*,*,#423,.T.);
#308=ORIENTED_EDGE('',*,*,#424,.F.);
#309=ORIENTED_EDGE('',*,*,#421,.T.);
#310=ORIENTED_EDGE('',*,*,#425,.F.);
#311=CARTESIAN_POINT('',(-28.8283027157681,1.50000000000004,240.891409185673));
#312=DIRECTION('',(-0.0453789911559011,-6.12825353538909E-17,-0.998969842969082));
#313=DIRECTION('',(0.998969842969082,-7.22223729145214E-33,-0.0453789911559011));
#314=SURFACE_STYLE_FILL_AREA(#426);
#315=ORIENTED_EDGE('',*,*,#427,.F.);
#316=ORIENTED_EDGE('',*,*,#428,.T.);
#317=CARTESIAN_POINT('',(-31.4342329162024,-7.2,243.762621468713));
#318=DIRECTION('',(-2.7809396298354E-18,1.0,-6.12194047192236E-17));
#319=DIRECTION('',(0.0,6.12194047192236E-17,1.0));
#320=SURFACE_STYLE_FILL_AREA(#429);
#321=ORIENTED_EDGE('',*,*,#427,.T.);
#322=ORIENTED_EDGE('',*,*,#423,.F.);
#323=ORIENTED_EDGE('',*,*,#430,.F.);
#324=ORIENTED_EDGE('',*,*,#431,.F.);
#325=ORIENTED_EDGE('',*,*,#432,.F.);
#326=CARTESIAN_POINT('',(-27.4383535443712,-7.0,243.581105504091));
#327=DIRECTION('',(-2.7809396298354E-18,1.0,-6.12194047192236E-17));
#328=DIRECTION('',(0.0,6.12194047192236E-17,1.0));
#329=SURFACE_STYLE_FILL_AREA(#433);
#330=ORIENTED_EDGE('',*,*,#428,.F.);
#331=ORIENTED_EDGE('',*,*,#434,.T.);
#332=CARTESIAN_POINT('',(-31.4342329162024,11.5,243.762621468713));
#333=DIRECTION('',(-2.7809396298354E-18,1.0,-6.12194047192236E-17));
#334=DIRECTION('',(0.0,6.12194047192236E-17,1.0));
#335=SURFACE_STYLE_FILL_AREA(#435);
#336=ORIENTED_EDGE('',*,*,#434,.F.);
#337=CARTESIAN_POINT('',(-30.2104948585654,-30.8,243.707032204546));
#338=DIRECTION('',(-2.7809396298354E-18,1.0,-6.12194047192236E-17));
#339=DIRECTION('',(0.0,6.12194047192236E-17,1.0));
#340=SURFACE_STYLE_FILL_AREA(#436);
#341=ORIENTED_EDGE('',*,*,#437,.T.);
#342=CARTESIAN_POINT('',(-30.2104948585654,30.8,243.707032204546));
#343=DIRECTION('',(2.7809396298354E-18,-1.0,6.12194047192236E-17));
#344=DIRECTION('',(0.0,-6.12194047192236E-17,-1.0));
#345=SURFACE_STYLE_FILL_AREA(#438);
#346=ORIENTED_EDGE('',*,*,#437,.F.);
#347=ORIENTED_EDGE('',*,*,#439,.T.);
#348=CARTESIAN_POINT('',(-31.4342329162024,11.5,243.762621468713));
#349=DIRECTION('',(-2.7809396298354E-18,1.0,-6.12194047192236E-17));
#350=DIRECTION('',(0.0,6.12194047192236E-17,1.0));
#351=SURFACE_STYLE_FILL_AREA(#440);
#352=ORIENTED_EDGE('',*,*,#439,.F.);
#353=ORIENTED_EDGE('',*,*,#441,.T.);
#354=CARTESIAN_POINT('',(-31.4342329162024,15.5,243.762621468713));
#355=DIRECTION('',(2.7809396298354E-18,-1.0,6.12194047192236E-17));
#356=DIRECTION('',(0.0,-6.12194047192236E-17,-1.0));
#357=SURFACE_STYLE_FILL_AREA(#442);
#358=ORIENTED_EDGE('',*,*,#441,.F.);
#359=ORIENTED_EDGE('',*,*,#443,.T.);
#360=CARTESIAN_POINT('',(-31.4342329162024,11.5,243.762621468713));
#361=DIRECTION('',(-2.7809396298354E-18,1.0,-6.12194047192236E-17));
#362=DIRECTION('',(0.0,6.12194047192236E-17,1.0));
#363=SURFACE_STYLE_FILL_AREA(#444);
#364=ORIENTED_EDGE('',*,*,#443,.F.);
#365=ORIENTED_EDGE('',*,*,#445,.T.);
#366=CARTESIAN_POINT('',(-31.4342329162024,10.8378679656441,243.762621468713));
#367=DIRECTION('',(-2.7809396298354E-18,1.0,-6.12194047192236E-17));
#368=DIRECTION('',(0.0,6.12194047192236E-17,1.0));
#369=SURFACE_STYLE_FILL_AREA(#446);
#370=ORIENTED_EDGE('',*,*,#445,.F.);
#371=ORIENTED_EDGE('',*,*,#447,.T.);
#372=CARTESIAN_POINT('',(-31.4342329162024,10.6257359312881,243.762621468713));
#373=DIRECTION('',(-2.7809396298354E-18,1.0,-6.12194047192236E-17));
#374=DIRECTION('',(0.0,6.12194047192236E-17,1.0));
#375=SURFACE_STYLE_FILL_AREA(#448);
#376=ORIENTED_EDGE('',*,*,#447,.F.);
#377=ORIENTED_EDGE('',*,*,#449,.T.);
#378=CARTESIAN_POINT('',(-31.4342329162024,11.5,243.762621468713));
#379=DIRECTION('',(-2.7809396298354E-18,1.0,-6.12194047192236E-17));
#380=DIRECTION('',(0.0,6.12194047192236E-17,1.0));
#381=SURFACE_STYLE_FILL_AREA(#450);
#382=ORIENTED_EDGE('',*,*,#449,.F.);
#383=ORIENTED_EDGE('',*,*,#413,.T.);
#384=CARTESIAN_POINT('',(-31.4342329162024,10.2,243.762621468713));
#385=DIRECTION('',(-2.7809396298354E-18,1.0,-6.12194047192236E-17));
#386=DIRECTION('',(0.0,6.12194047192236E-17,1.0));
#387=SURFACE_STYLE_FILL_AREA(#451);
#388=ORIENTED_EDGE('',*,*,#430,.T.);
#389=ORIENTED_EDGE('',*,*,#425,.T.);
#390=ORIENTED_EDGE('',*,*,#420,.T.);
#391=ORIENTED_EDGE('',*,*,#452,.T.);
#392=CARTESIAN_POINT('',(-28.7829952199803,1.50000000000004,241.526046958219));
#393=DIRECTION('',(0.998969842969082,3.85185988877447E-33,-0.0453789911559009));
#394=DIRECTION('',(0.0453789911559009,6.12825353538909E-17,0.998969842969082));
#395=SURFACE_STYLE_FILL_AREA(#453);
#396=ORIENTED_EDGE('',*,*,#419,.T.);
#397=ORIENTED_EDGE('',*,*,#454,.T.);
#398=ORIENTED_EDGE('',*,*,#431,.T.);
#399=ORIENTED_EDGE('',*,*,#452,.F.);
#400=CARTESIAN_POINT('',(-34.0401631166368,1.50000000000004,246.633833751751));
#401=DIRECTION('',(0.0453789911559009,6.12825353538909E-17,0.998969842969082));
#402=DIRECTION('',(-0.998969842969082,0.0,0.0453789911559009));
#403=SURFACE_STYLE_FILL_AREA(#455);
#404=ORIENTED_EDGE('',*,*,#432,.T.);
#405=ORIENTED_EDGE('',*,*,#454,.F.);
#406=ORIENTED_EDGE('',*,*,#418,.T.);
#407=ORIENTED_EDGE('',*,*,#424,.T.);
#408=CARTESIAN_POINT('',(-34.0854706124247,1.50000000000004,245.999195979206));
#409=DIRECTION('',(-0.998969842969082,2.69630192214213E-33,0.045378991155901));
#410=DIRECTION('',(-0.045378991155901,-6.12825353538909E-17,-0.998969842969082));
#411=SURFACE_STYLE_FILL_AREA(#456);
#412=FILL_AREA_STYLE('',(#457));
#413=EDGE_CURVE('',#458,#458,#459,.T.);
#414=EDGE_CURVE('',#460,#460,#461,.T.);
#415=FILL_AREA_STYLE('',(#462));
#416=EDGE_CURVE('',#463,#463,#464,.T.);
#417=FILL_AREA_STYLE('',(#465));
#418=EDGE_CURVE('',#466,#467,#468,.T.);
#419=EDGE_CURVE('',#469,#466,#470,.T.);
#420=EDGE_CURVE('',#471,#469,#472,.T.);
#421=EDGE_CURVE('',#467,#471,#473,.T.);
#422=FILL_AREA_STYLE('',(#474));
#423=EDGE_CURVE('',#475,#476,#477,.T.);
#424=EDGE_CURVE('',#467,#476,#478,.T.);
#425=EDGE_CURVE('',#475,#471,#479,.T.);
#426=FILL_AREA_STYLE('',(#480));
#427=EDGE_CURVE('',#481,#481,#482,.T.);
#428=EDGE_CURVE('',#483,#483,#484,.T.);
#429=FILL_AREA_STYLE('',(#485));
#430=EDGE_CURVE('',#486,#475,#487,.T.);
#431=EDGE_CURVE('',#488,#486,#489,.T.);
#432=EDGE_CURVE('',#476,#488,#490,.T.);
#433=FILL_AREA_STYLE('',(#491));
#434=EDGE_CURVE('',#492,#492,#493,.T.);
#435=FILL_AREA_STYLE('',(#494));
#436=FILL_AREA_STYLE('',(#495));
#437=EDGE_CURVE('',#496,#496,#497,.T.);
#438=FILL_AREA_STYLE('',(#498));
#439=EDGE_CURVE('',#499,#499,#500,.T.);
#440=FILL_AREA_STYLE('',(#501));
#441=EDGE_CURVE('',#502,#502,#503,.T.);
#442=FILL_AREA_STYLE('',(#504));
#443=EDGE_CURVE('',#505,#505,#506,.T.);
#444=FILL_AREA_STYLE('',(#507));
#445=EDGE_CURVE('',#508,#508,#509,.T.);
#446=FILL_AREA_STYLE('',(#510));
#447=EDGE_CURVE('',#511,#511,#512,.T.);
#448=FILL_AREA_STYLE('',(#513));
#449=EDGE_CURVE('',#514,#514,#515,.T.);
#450=FILL_AREA_STYLE('',(#516));
#451=FILL_AREA_STYLE('',(#517));
#452=EDGE_CURVE('',#469,#486,#518,.T.);
#453=FILL_AREA_STYLE('',(#519));
#454=EDGE_CURVE('',#466,#488,#520,.T.);
#455=FILL_AREA_STYLE('',(#521));
#456=FILL_AREA_STYLE('',(#522));
#457=FILL_AREA_STYLE_COLOUR('',#523);
#458=VERTEX_POINT('',#524);
#459=CIRCLE('',#525,2.45);
#460=VERTEX_POINT('',#526);
#461=CIRCLE('',#527,4.0);
#462=FILL_AREA_STYLE_COLOUR('',#528);
#463=VERTEX_POINT('',#529);
#464=CIRCLE('',#530,4.0);
#465=FILL_AREA_STYLE_COLOUR('',#531);
#466=VERTEX_POINT('',#532);
#467=VERTEX_POINT('',#533);
#468=LINE('',#534,#535);
#469=VERTEX_POINT('',#536);
#470=LINE('',#537,#538);
#471=VERTEX_POINT('',#539);
#472=LINE('',#540,#541);
#473=LINE('',#542,#543);
#474=FILL_AREA_STYLE_COLOUR('',#544);
#475=VERTEX_POINT('',#545);
#476=VERTEX_POINT('',#546);
#477=LINE('',#547,#548);
#478=LINE('',#549,#550);
#479=LINE('',#551,#552);
#480=FILL_AREA_STYLE_COLOUR('',#553);
#481=VERTEX_POINT('',#554);
#482=CIRCLE('',#555,2.65);
#483=VERTEX_POINT('',#556);
#484=CIRCLE('',#557,2.45);
#485=FILL_AREA_STYLE_COLOUR('',#558);
#486=VERTEX_POINT('',#559);
#487=LINE('',#560,#561);
#488=VERTEX_POINT('',#562);
#489=LINE('',#563,#564);
#490=LINE('',#565,#566);
#491=FILL_AREA_STYLE_COLOUR('',#567);
#492=VERTEX_POINT('',#568);
#493=CIRCLE('',#569,2.45);
#494=FILL_AREA_STYLE_COLOUR('',#570);
#495=FILL_AREA_STYLE_COLOUR('',#571);
#496=VERTEX_POINT('',#572);
#497=CIRCLE('',#573,2.45);
#498=FILL_AREA_STYLE_COLOUR('',#574);
#499=VERTEX_POINT('',#575);
#500=CIRCLE('',#576,2.45);
#501=FILL_AREA_STYLE_COLOUR('',#577);
#502=VERTEX_POINT('',#578);
#503=CIRCLE('',#579,3.0);
#504=FILL_AREA_STYLE_COLOUR('',#580);
#505=VERTEX_POINT('',#581);
#506=CIRCLE('',#582,3.0);
#507=FILL_AREA_STYLE_COLOUR('',#583);
#508=VERTEX_POINT('',#584);
#509=CIRCLE('',#585,2.33786796564403);
#510=FILL_AREA_STYLE_COLOUR('',#586);
#511=VERTEX_POINT('',#587);
#512=CIRCLE('',#588,2.25);
#513=FILL_AREA_STYLE_COLOUR('',#589);
#514=VERTEX_POINT('',#590);
#515=CIRCLE('',#591,2.25);
#516=FILL_AREA_STYLE_COLOUR('',#592);
#517=FILL_AREA_STYLE_COLOUR('',#593);
#518=LINE('',#594,#595);
#519=FILL_AREA_STYLE_COLOUR('',#596);
#520=LINE('',#597,#598);
#521=FILL_AREA_STYLE_COLOUR('',#599);
#522=FILL_AREA_STYLE_COLOUR('',#600);
#523=COLOUR_RGB('',0.752941191196442,0.752941191196442,0.752941191196442);
#524=CARTESIAN_POINT('',(-31.4342329162024,10.0,246.212621468713));
#525=AXIS2_PLACEMENT_3D('',#601,#602,#603);
#526=CARTESIAN_POINT('',(-31.4342329162024,10.0,247.762621468713));
#527=AXIS2_PLACEMENT_3D('',#604,#605,#606);
#528=COLOUR_RGB('',0.752941191196442,0.752941191196442,0.752941191196442);
#529=CARTESIAN_POINT('',(-31.4342329162024,1.50000000000004,239.762621468713));
#530=AXIS2_PLACEMENT_3D('',#607,#608,#609);
#531=COLOUR_RGB('',0.752941191196442,0.752941191196442,0.752941191196442);
#532=CARTESIAN_POINT('',(-34.0566077586887,1.50000000000004,246.634580762556));
#533=CARTESIAN_POINT('',(-34.3061922100462,1.50000000000004,241.140246626226));
#534=CARTESIAN_POINT('',(-34.0854706124247,1.50000000000004,245.999195979206));
#535=VECTOR('',#610,1.0);
#536=CARTESIAN_POINT('',(-28.5622736223587,1.50000000000004,246.384996311199));
#537=CARTESIAN_POINT('',(-34.0401631166368,1.50000000000004,246.633833751751));
#538=VECTOR('',#611,1.0);
#539=CARTESIAN_POINT('',(-28.8118580737162,1.50000000000004,240.890662174869));
#540=CARTESIAN_POINT('',(-28.7829952199803,1.50000000000004,241.526046958219));
#541=VECTOR('',#612,1.0);
#542=CARTESIAN_POINT('',(-28.8283027157681,1.50000000000004,240.891409185673));
#543=VECTOR('',#613,1.0);
#544=COLOUR_RGB('',0.752941191196442,0.752941191196442,0.752941191196442);
#545=CARTESIAN_POINT('',(-28.8118580737162,-7.0,240.890662174869));
#546=CARTESIAN_POINT('',(-34.3061922100462,-7.0,241.140246626226));
#547=CARTESIAN_POINT('',(-27.5631457700499,-7.0,240.833938435925));
#548=VECTOR('',#614,1.0);
#549=CARTESIAN_POINT('',(-34.3061922100462,1.50000000000004,241.140246626226));
#550=VECTOR('',#615,1.0);
#551=CARTESIAN_POINT('',(-28.8118580737162,1.50000000000004,240.890662174869));
#552=VECTOR('',#616,1.0);
#553=COLOUR_RGB('',0.752941191196442,0.752941191196442,0.752941191196442);
#554=CARTESIAN_POINT('',(-31.4342329162024,-7.0,246.412621468713));
#555=AXIS2_PLACEMENT_3D('',#617,#618,#619);
#556=CARTESIAN_POINT('',(-31.4342329162024,-7.2,246.212621468713));
#557=AXIS2_PLACEMENT_3D('',#620,#621,#622);
#558=COLOUR_RGB('',0.752941191196442,0.752941191196442,0.752941191196442);
#559=CARTESIAN_POINT('',(-28.5622736223587,-7.0,246.384996311199));
#560=CARTESIAN_POINT('',(-28.6870658480375,-7.0,243.637829243034));
#561=VECTOR('',#623,1.0);
#562=CARTESIAN_POINT('',(-34.0566077586887,-7.0,246.634580762556));
#563=CARTESIAN_POINT('',(-27.3135613186925,-7.0,246.328272572255));
#564=VECTOR('',#624,1.0);
#565=CARTESIAN_POINT('',(-34.1813999843674,-7.0,243.887413694391));
#566=VECTOR('',#625,1.0);
#567=COLOUR_RGB('',0.752941191196442,0.752941191196442,0.752941191196442);
#568=CARTESIAN_POINT('',(-31.4342329162024,-30.8,246.212621468713));
#569=AXIS2_PLACEMENT_3D('',#626,#627,#628);
#570=COLOUR_RGB('',0.752941191196442,0.752941191196442,0.752941191196442);
#571=COLOUR_RGB('',0.752941191196442,0.752941191196442,0.752941191196442);
#572=CARTESIAN_POINT('',(-31.4342329162024,30.8,246.212621468713));
#573=AXIS2_PLACEMENT_3D('',#629,#630,#631);
#574=COLOUR_RGB('',0.752941191196442,0.752941191196442,0.752941191196442);
#575=CARTESIAN_POINT('',(-31.4342329162024,16.05,246.212621468713));
#576=AXIS2_PLACEMENT_3D('',#632,#633,#634);
#577=COLOUR_RGB('',0.752941191196442,0.752941191196442,0.752941191196442);
#578=CARTESIAN_POINT('',(-31.4342329162024,15.5,246.762621468713));
#579=AXIS2_PLACEMENT_3D('',#635,#636,#637);
#580=COLOUR_RGB('',0.752941191196442,0.752941191196442,0.752941191196442);
#581=CARTESIAN_POINT('',(-31.4342329162024,11.5,246.762621468713));
#582=AXIS2_PLACEMENT_3D('',#638,#639,#640);
#583=COLOUR_RGB('',0.752941191196442,0.752941191196442,0.752941191196442);
#584=CARTESIAN_POINT('',(-31.4342329162024,10.8378679656441,246.100489434357));
#585=AXIS2_PLACEMENT_3D('',#641,#642,#643);
#586=COLOUR_RGB('',0.752941191196442,0.752941191196442,0.752941191196442);
#587=CARTESIAN_POINT('',(-31.4342329162024,10.6257359312881,246.012621468713));
#588=AXIS2_PLACEMENT_3D('',#644,#645,#646);
#589=COLOUR_RGB('',0.752941191196442,0.752941191196442,0.752941191196442);
#590=CARTESIAN_POINT('',(-31.4342329162024,10.2,246.012621468713));
#591=AXIS2_PLACEMENT_3D('',#647,#648,#649);
#592=COLOUR_RGB('',0.752941191196442,0.752941191196442,0.752941191196442);
#593=COLOUR_RGB('',0.752941191196442,0.752941191196442,0.752941191196442);
#594=CARTESIAN_POINT('',(-28.5622736223587,1.50000000000004,246.384996311199));
#595=VECTOR('',#650,1.0);
#596=COLOUR_RGB('',0.752941191196442,0.752941191196442,0.752941191196442);
#597=CARTESIAN_POINT('',(-34.0566077586887,1.50000000000004,246.634580762556));
#598=VECTOR('',#651,1.0);
#599=COLOUR_RGB('',0.752941191196442,0.752941191196442,0.752941191196442);
#600=COLOUR_RGB('',0.752941191196442,0.752941191196442,0.752941191196442);
#601=CARTESIAN_POINT('',(-31.4342329162024,10.0,243.762621468713));
#602=DIRECTION('',(-2.7809396298354E-18,1.0,-6.12194047192236E-17));
#603=DIRECTION('',(0.0,6.12194047192236E-17,1.0));
#604=CARTESIAN_POINT('',(-31.4342329162024,10.0,243.762621468713));
#605=DIRECTION('',(-2.7809396298354E-18,1.0,-6.12194047192236E-17));
#606=DIRECTION('',(0.0,6.12194047192236E-17,1.0));
#607=CARTESIAN_POINT('',(-31.4342329162024,1.50000000000004,243.762621468713));
#608=DIRECTION('',(2.7809396298354E-18,-1.0,6.12194047192236E-17));
#609=DIRECTION('',(0.0,-6.12194047192236E-17,-1.0));
#610=DIRECTION('',(-0.045378991155901,-6.12825353538909E-17,-0.998969842969082));
#611=DIRECTION('',(-0.998969842969082,-3.85185988877447E-34,0.0453789911559009));
#612=DIRECTION('',(0.0453789911559009,6.12825353538909E-17,0.998969842969082));
#613=DIRECTION('',(0.998969842969082,-6.93334779979405E-33,-0.0453789911559011));
#614=DIRECTION('',(-0.998969842969082,6.5481618109166E-33,0.0453789911559011));
#615=DIRECTION('',(2.7809396298354E-18,-1.0,6.12194047192236E-17));
#616=DIRECTION('',(-2.7809396298354E-18,1.0,-6.12194047192236E-17));
#617=CARTESIAN_POINT('',(-31.4342329162024,-7.0,243.762621468713));
#618=DIRECTION('',(-2.7809396298354E-18,1.0,-6.12194047192236E-17));
#619=DIRECTION('',(0.0,6.12194047192236E-17,1.0));
#620=CARTESIAN_POINT('',(-31.4342329162024,-7.2,243.762621468713));
#621=DIRECTION('',(-2.7809396298354E-18,1.0,-6.12194047192236E-17));
#622=DIRECTION('',(0.0,6.12194047192236E-17,1.0));
#623=DIRECTION('',(-0.0453789911559009,-6.12825353538909E-17,-0.998969842969082));
#624=DIRECTION('',(0.998969842969082,1.15555796663234E-33,-0.0453789911559009));
#625=DIRECTION('',(0.045378991155901,6.12825353538909E-17,0.998969842969082));
#626=CARTESIAN_POINT('',(-31.4342329162024,-30.8,243.762621468713));
#627=DIRECTION('',(-2.7809396298354E-18,1.0,-6.12194047192236E-17));
#628=DIRECTION('',(0.0,6.12194047192236E-17,1.0));
#629=CARTESIAN_POINT('',(-31.4342329162024,30.8,243.762621468713));
#630=DIRECTION('',(-2.7809396298354E-18,1.0,-6.12194047192236E-17));
#631=DIRECTION('',(0.0,6.12194047192236E-17,1.0));
#632=CARTESIAN_POINT('',(-31.4342329162024,16.05,243.762621468713));
#633=DIRECTION('',(-2.7809396298354E-18,1.0,-6.12194047192236E-17));
#634=DIRECTION('',(0.0,6.12194047192236E-17,1.0));
#635=CARTESIAN_POINT('',(-31.4342329162024,15.5,243.762621468713));
#636=DIRECTION('',(-2.7809396298354E-18,1.0,-6.12194047192236E-17));
#637=DIRECTION('',(0.0,6.12194047192236E-17,1.0));
#638=CARTESIAN_POINT('',(-31.4342329162024,11.5,243.762621468713));
#639=DIRECTION('',(-2.7809396298354E-18,1.0,-6.12194047192236E-17));
#640=DIRECTION('',(0.0,6.12194047192236E-17,1.0));
#641=CARTESIAN_POINT('',(-31.4342329162024,10.8378679656441,243.762621468713));
#642=DIRECTION('',(-2.7809396298354E-18,1.0,-6.12194047192236E-17));
#643=DIRECTION('',(0.0,6.12194047192236E-17,1.0));
#644=CARTESIAN_POINT('',(-31.4342329162024,10.6257359312881,243.762621468713));
#645=DIRECTION('',(-2.7809396298354E-18,1.0,-6.12194047192236E-17));
#646=DIRECTION('',(0.0,6.12194047192236E-17,1.0));
#647=CARTESIAN_POINT('',(-31.4342329162024,10.2,243.762621468713));
#648=DIRECTION('',(-2.7809396298354E-18,1.0,-6.12194047192236E-17));
#649=DIRECTION('',(0.0,6.12194047192236E-17,1.0));
#650=DIRECTION('',(2.7809396298354E-18,-1.0,6.12194047192236E-17));
#651=DIRECTION('',(2.7809396298354E-18,-1.0,6.12194047192236E-17));
ENDSEC;
END-ISO-10303-21;
