ISO-10303-21;
HEADER;
/* Generated by software containing ST-Developer
 * from STEP Tools, Inc. (www.steptools.com) 
 */

FILE_DESCRIPTION(
/* description */ (''),
/* implementation_level */ '2;1');

FILE_NAME(
/* name */ 
'C:/Users/rannou3d/Documents/demande tarif gmail.com/npcreations/diabo
lo .step',
/* time_stamp */ '2019-07-16T15:04:54+02:00',
/* author */ (''),
/* organization */ (''),
/* preprocessor_version */ 'ST-DEVELOPER v18',
/* originating_system */ 'Autodesk Translation Framework v8.2.0.1029',
/* authorisation */ '');

FILE_SCHEMA (('AUTOMOTIVE_DESIGN { 1 0 10303 214 3 1 1 }'));
ENDSEC;

DATA;
#10=MECHANICAL_DESIGN_GEOMETRIC_PRESENTATION_REPRESENTATION('',(#13),#305);
#11=SHAPE_REPRESENTATION_RELATIONSHIP('SRR','None',#312,#12);
#12=ADVANCED_BREP_SHAPE_REPRESENTATION('',(#14),#304);
#13=STYLED_ITEM('',(#321),#14);
#14=MANIFOLD_SOLID_BREP('Body1',#165);
#15=FACE_BOUND('',#41,.T.);
#16=FACE_BOUND('',#44,.T.);
#17=FACE_BOUND('',#46,.T.);
#18=FACE_BOUND('',#51,.T.);
#19=FACE_BOUND('',#54,.T.);
#20=FACE_BOUND('',#56,.T.);
#21=PLANE('',#182);
#22=PLANE('',#187);
#23=PLANE('',#188);
#24=PLANE('',#197);
#25=PLANE('',#201);
#26=PLANE('',#202);
#27=FACE_OUTER_BOUND('',#39,.T.);
#28=FACE_OUTER_BOUND('',#40,.T.);
#29=FACE_OUTER_BOUND('',#42,.T.);
#30=FACE_OUTER_BOUND('',#43,.T.);
#31=FACE_OUTER_BOUND('',#45,.T.);
#32=FACE_OUTER_BOUND('',#47,.T.);
#33=FACE_OUTER_BOUND('',#48,.T.);
#34=FACE_OUTER_BOUND('',#49,.T.);
#35=FACE_OUTER_BOUND('',#50,.T.);
#36=FACE_OUTER_BOUND('',#52,.T.);
#37=FACE_OUTER_BOUND('',#53,.T.);
#38=FACE_OUTER_BOUND('',#55,.T.);
#39=EDGE_LOOP('',(#111,#112,#113,#114));
#40=EDGE_LOOP('',(#115));
#41=EDGE_LOOP('',(#116));
#42=EDGE_LOOP('',(#117,#118,#119,#120));
#43=EDGE_LOOP('',(#121));
#44=EDGE_LOOP('',(#122));
#45=EDGE_LOOP('',(#123));
#46=EDGE_LOOP('',(#124));
#47=EDGE_LOOP('',(#125,#126,#127,#128));
#48=EDGE_LOOP('',(#129,#130,#131,#132));
#49=EDGE_LOOP('',(#133,#134,#135,#136));
#50=EDGE_LOOP('',(#137));
#51=EDGE_LOOP('',(#138));
#52=EDGE_LOOP('',(#139,#140,#141,#142));
#53=EDGE_LOOP('',(#143));
#54=EDGE_LOOP('',(#144));
#55=EDGE_LOOP('',(#145));
#56=EDGE_LOOP('',(#146));
#57=LINE('',#264,#63);
#58=LINE('',#274,#64);
#59=LINE('',#282,#65);
#60=LINE('',#285,#66);
#61=LINE('',#291,#67);
#62=LINE('',#298,#68);
#63=VECTOR('',#209,4.);
#64=VECTOR('',#222,29.);
#65=VECTOR('',#233,16.);
#66=VECTOR('',#236,8.);
#67=VECTOR('',#243,16.);
#68=VECTOR('',#252,29.);
#69=CIRCLE('',#180,4.);
#70=CIRCLE('',#181,4.);
#71=CIRCLE('',#183,29.);
#72=CIRCLE('',#184,16.);
#73=CIRCLE('',#186,29.);
#74=CIRCLE('',#189,16.);
#75=CIRCLE('',#190,8.);
#76=CIRCLE('',#193,8.);
#77=CIRCLE('',#195,16.);
#78=CIRCLE('',#196,16.);
#79=CIRCLE('',#199,29.);
#80=CIRCLE('',#200,29.);
#81=VERTEX_POINT('',#261);
#82=VERTEX_POINT('',#263);
#83=VERTEX_POINT('',#267);
#84=VERTEX_POINT('',#269);
#85=VERTEX_POINT('',#272);
#86=VERTEX_POINT('',#277);
#87=VERTEX_POINT('',#279);
#88=VERTEX_POINT('',#284);
#89=VERTEX_POINT('',#288);
#90=VERTEX_POINT('',#290);
#91=VERTEX_POINT('',#295);
#92=VERTEX_POINT('',#297);
#93=EDGE_CURVE('',#81,#81,#69,.T.);
#94=EDGE_CURVE('',#81,#82,#57,.T.);
#95=EDGE_CURVE('',#82,#82,#70,.T.);
#96=EDGE_CURVE('',#83,#83,#71,.T.);
#97=EDGE_CURVE('',#84,#84,#72,.T.);
#98=EDGE_CURVE('',#85,#85,#73,.T.);
#99=EDGE_CURVE('',#85,#83,#58,.T.);
#100=EDGE_CURVE('',#86,#86,#74,.T.);
#101=EDGE_CURVE('',#87,#87,#75,.T.);
#102=EDGE_CURVE('',#84,#86,#59,.T.);
#103=EDGE_CURVE('',#87,#88,#60,.T.);
#104=EDGE_CURVE('',#88,#88,#76,.T.);
#105=EDGE_CURVE('',#89,#89,#77,.T.);
#106=EDGE_CURVE('',#89,#90,#61,.T.);
#107=EDGE_CURVE('',#90,#90,#78,.T.);
#108=EDGE_CURVE('',#91,#91,#79,.T.);
#109=EDGE_CURVE('',#91,#92,#62,.T.);
#110=EDGE_CURVE('',#92,#92,#80,.T.);
#111=ORIENTED_EDGE('',*,*,#93,.F.);
#112=ORIENTED_EDGE('',*,*,#94,.T.);
#113=ORIENTED_EDGE('',*,*,#95,.F.);
#114=ORIENTED_EDGE('',*,*,#94,.F.);
#115=ORIENTED_EDGE('',*,*,#96,.F.);
#116=ORIENTED_EDGE('',*,*,#97,.T.);
#117=ORIENTED_EDGE('',*,*,#98,.F.);
#118=ORIENTED_EDGE('',*,*,#99,.T.);
#119=ORIENTED_EDGE('',*,*,#96,.T.);
#120=ORIENTED_EDGE('',*,*,#99,.F.);
#121=ORIENTED_EDGE('',*,*,#98,.T.);
#122=ORIENTED_EDGE('',*,*,#93,.T.);
#123=ORIENTED_EDGE('',*,*,#100,.F.);
#124=ORIENTED_EDGE('',*,*,#101,.T.);
#125=ORIENTED_EDGE('',*,*,#97,.F.);
#126=ORIENTED_EDGE('',*,*,#102,.T.);
#127=ORIENTED_EDGE('',*,*,#100,.T.);
#128=ORIENTED_EDGE('',*,*,#102,.F.);
#129=ORIENTED_EDGE('',*,*,#101,.F.);
#130=ORIENTED_EDGE('',*,*,#103,.T.);
#131=ORIENTED_EDGE('',*,*,#104,.F.);
#132=ORIENTED_EDGE('',*,*,#103,.F.);
#133=ORIENTED_EDGE('',*,*,#105,.F.);
#134=ORIENTED_EDGE('',*,*,#106,.T.);
#135=ORIENTED_EDGE('',*,*,#107,.F.);
#136=ORIENTED_EDGE('',*,*,#106,.F.);
#137=ORIENTED_EDGE('',*,*,#105,.T.);
#138=ORIENTED_EDGE('',*,*,#104,.T.);
#139=ORIENTED_EDGE('',*,*,#108,.F.);
#140=ORIENTED_EDGE('',*,*,#109,.T.);
#141=ORIENTED_EDGE('',*,*,#110,.T.);
#142=ORIENTED_EDGE('',*,*,#109,.F.);
#143=ORIENTED_EDGE('',*,*,#108,.T.);
#144=ORIENTED_EDGE('',*,*,#95,.T.);
#145=ORIENTED_EDGE('',*,*,#110,.F.);
#146=ORIENTED_EDGE('',*,*,#107,.T.);
#147=CYLINDRICAL_SURFACE('',#179,4.);
#148=CYLINDRICAL_SURFACE('',#185,29.);
#149=CYLINDRICAL_SURFACE('',#191,16.);
#150=CYLINDRICAL_SURFACE('',#192,8.);
#151=CYLINDRICAL_SURFACE('',#194,16.);
#152=CYLINDRICAL_SURFACE('',#198,29.);
#153=ADVANCED_FACE('',(#27),#147,.F.);
#154=ADVANCED_FACE('',(#28,#15),#21,.F.);
#155=ADVANCED_FACE('',(#29),#148,.T.);
#156=ADVANCED_FACE('',(#30,#16),#22,.T.);
#157=ADVANCED_FACE('',(#31,#17),#23,.F.);
#158=ADVANCED_FACE('',(#32),#149,.T.);
#159=ADVANCED_FACE('',(#33),#150,.T.);
#160=ADVANCED_FACE('',(#34),#151,.T.);
#161=ADVANCED_FACE('',(#35,#18),#24,.T.);
#162=ADVANCED_FACE('',(#36),#152,.T.);
#163=ADVANCED_FACE('',(#37,#19),#25,.T.);
#164=ADVANCED_FACE('',(#38,#20),#26,.F.);
#165=CLOSED_SHELL('',(#153,#154,#155,#156,#157,#158,#159,#160,#161,#162,
#163,#164));
#166=DERIVED_UNIT_ELEMENT(#168,1.);
#167=DERIVED_UNIT_ELEMENT(#307,3.);
#168=(
MASS_UNIT()
NAMED_UNIT(*)
SI_UNIT(.KILO.,.GRAM.)
);
#169=DERIVED_UNIT((#166,#167));
#170=MEASURE_REPRESENTATION_ITEM('density measure',
POSITIVE_RATIO_MEASURE(7850.),#169);
#171=PROPERTY_DEFINITION_REPRESENTATION(#176,#173);
#172=PROPERTY_DEFINITION_REPRESENTATION(#177,#174);
#173=REPRESENTATION('material name',(#175),#304);
#174=REPRESENTATION('density',(#170),#304);
#175=DESCRIPTIVE_REPRESENTATION_ITEM('Steel','Steel');
#176=PROPERTY_DEFINITION('material property','material name',#314);
#177=PROPERTY_DEFINITION('material property','density of part',#314);
#178=AXIS2_PLACEMENT_3D('placement',#259,#203,#204);
#179=AXIS2_PLACEMENT_3D('',#260,#205,#206);
#180=AXIS2_PLACEMENT_3D('',#262,#207,#208);
#181=AXIS2_PLACEMENT_3D('',#265,#210,#211);
#182=AXIS2_PLACEMENT_3D('',#266,#212,#213);
#183=AXIS2_PLACEMENT_3D('',#268,#214,#215);
#184=AXIS2_PLACEMENT_3D('',#270,#216,#217);
#185=AXIS2_PLACEMENT_3D('',#271,#218,#219);
#186=AXIS2_PLACEMENT_3D('',#273,#220,#221);
#187=AXIS2_PLACEMENT_3D('',#275,#223,#224);
#188=AXIS2_PLACEMENT_3D('',#276,#225,#226);
#189=AXIS2_PLACEMENT_3D('',#278,#227,#228);
#190=AXIS2_PLACEMENT_3D('',#280,#229,#230);
#191=AXIS2_PLACEMENT_3D('',#281,#231,#232);
#192=AXIS2_PLACEMENT_3D('',#283,#234,#235);
#193=AXIS2_PLACEMENT_3D('',#286,#237,#238);
#194=AXIS2_PLACEMENT_3D('',#287,#239,#240);
#195=AXIS2_PLACEMENT_3D('',#289,#241,#242);
#196=AXIS2_PLACEMENT_3D('',#292,#244,#245);
#197=AXIS2_PLACEMENT_3D('',#293,#246,#247);
#198=AXIS2_PLACEMENT_3D('',#294,#248,#249);
#199=AXIS2_PLACEMENT_3D('',#296,#250,#251);
#200=AXIS2_PLACEMENT_3D('',#299,#253,#254);
#201=AXIS2_PLACEMENT_3D('',#300,#255,#256);
#202=AXIS2_PLACEMENT_3D('',#301,#257,#258);
#203=DIRECTION('axis',(0.,0.,1.));
#204=DIRECTION('refdir',(1.,0.,0.));
#205=DIRECTION('center_axis',(0.,0.,1.));
#206=DIRECTION('ref_axis',(1.,0.,0.));
#207=DIRECTION('center_axis',(0.,0.,1.));
#208=DIRECTION('ref_axis',(1.,0.,0.));
#209=DIRECTION('',(0.,0.,1.));
#210=DIRECTION('center_axis',(0.,0.,-1.));
#211=DIRECTION('ref_axis',(1.,0.,0.));
#212=DIRECTION('center_axis',(0.,0.,-1.));
#213=DIRECTION('ref_axis',(1.,0.,0.));
#214=DIRECTION('center_axis',(0.,0.,-1.));
#215=DIRECTION('ref_axis',(1.,0.,0.));
#216=DIRECTION('center_axis',(0.,0.,-1.));
#217=DIRECTION('ref_axis',(1.,0.,0.));
#218=DIRECTION('center_axis',(0.,0.,-1.));
#219=DIRECTION('ref_axis',(1.,0.,0.));
#220=DIRECTION('center_axis',(0.,0.,-1.));
#221=DIRECTION('ref_axis',(1.,0.,0.));
#222=DIRECTION('',(0.,0.,1.));
#223=DIRECTION('center_axis',(0.,0.,-1.));
#224=DIRECTION('ref_axis',(1.,0.,0.));
#225=DIRECTION('center_axis',(0.,0.,-1.));
#226=DIRECTION('ref_axis',(1.,0.,0.));
#227=DIRECTION('center_axis',(0.,0.,-1.));
#228=DIRECTION('ref_axis',(1.,0.,0.));
#229=DIRECTION('center_axis',(0.,0.,-1.));
#230=DIRECTION('ref_axis',(1.,0.,0.));
#231=DIRECTION('center_axis',(0.,0.,-1.));
#232=DIRECTION('ref_axis',(1.,0.,0.));
#233=DIRECTION('',(0.,0.,1.));
#234=DIRECTION('center_axis',(0.,0.,-1.));
#235=DIRECTION('ref_axis',(1.,0.,0.));
#236=DIRECTION('',(0.,0.,1.));
#237=DIRECTION('center_axis',(0.,0.,1.));
#238=DIRECTION('ref_axis',(1.,0.,0.));
#239=DIRECTION('center_axis',(0.,0.,-1.));
#240=DIRECTION('ref_axis',(1.,0.,0.));
#241=DIRECTION('center_axis',(0.,0.,-1.));
#242=DIRECTION('ref_axis',(1.,0.,0.));
#243=DIRECTION('',(0.,0.,1.));
#244=DIRECTION('center_axis',(0.,0.,1.));
#245=DIRECTION('ref_axis',(1.,0.,0.));
#246=DIRECTION('center_axis',(0.,0.,-1.));
#247=DIRECTION('ref_axis',(1.,0.,0.));
#248=DIRECTION('center_axis',(0.,0.,1.));
#249=DIRECTION('ref_axis',(1.,0.,0.));
#250=DIRECTION('center_axis',(0.,0.,1.));
#251=DIRECTION('ref_axis',(1.,0.,0.));
#252=DIRECTION('',(0.,0.,-1.));
#253=DIRECTION('center_axis',(0.,0.,1.));
#254=DIRECTION('ref_axis',(1.,0.,0.));
#255=DIRECTION('center_axis',(0.,0.,1.));
#256=DIRECTION('ref_axis',(1.,0.,0.));
#257=DIRECTION('center_axis',(0.,0.,1.));
#258=DIRECTION('ref_axis',(1.,0.,0.));
#259=CARTESIAN_POINT('',(0.,0.,0.));
#260=CARTESIAN_POINT('Origin',(0.,0.,-45.));
#261=CARTESIAN_POINT('',(-4.,4.89858719658941E-16,-45.));
#262=CARTESIAN_POINT('Origin',(0.,0.,-45.));
#263=CARTESIAN_POINT('',(-4.,4.89858719658941E-16,12.));
#264=CARTESIAN_POINT('',(-4.,-4.89858719658941E-16,-45.));
#265=CARTESIAN_POINT('Origin',(0.,0.,12.));
#266=CARTESIAN_POINT('Origin',(0.,0.,-40.));
#267=CARTESIAN_POINT('',(-29.,3.55147571752733E-15,-40.));
#268=CARTESIAN_POINT('Origin',(0.,0.,-40.));
#269=CARTESIAN_POINT('',(-16.,1.95943487863577E-15,-40.));
#270=CARTESIAN_POINT('Origin',(0.,0.,-40.));
#271=CARTESIAN_POINT('Origin',(0.,0.,-40.));
#272=CARTESIAN_POINT('',(-29.,3.55147571752733E-15,-45.));
#273=CARTESIAN_POINT('Origin',(0.,0.,-45.));
#274=CARTESIAN_POINT('',(-29.,3.55147571752733E-15,-40.));
#275=CARTESIAN_POINT('Origin',(0.,0.,-45.));
#276=CARTESIAN_POINT('Origin',(0.,0.,-35.));
#277=CARTESIAN_POINT('',(-16.,1.95943487863577E-15,-35.));
#278=CARTESIAN_POINT('Origin',(0.,0.,-35.));
#279=CARTESIAN_POINT('',(-8.,9.79717439317883E-16,-35.));
#280=CARTESIAN_POINT('Origin',(0.,0.,-35.));
#281=CARTESIAN_POINT('Origin',(0.,0.,-35.));
#282=CARTESIAN_POINT('',(-16.,1.95943487863577E-15,-35.));
#283=CARTESIAN_POINT('Origin',(0.,0.,-5.));
#284=CARTESIAN_POINT('',(-8.,9.79717439317883E-16,-5.));
#285=CARTESIAN_POINT('',(-8.,9.79717439317883E-16,-5.));
#286=CARTESIAN_POINT('Origin',(0.,0.,-5.));
#287=CARTESIAN_POINT('Origin',(0.,0.,0.));
#288=CARTESIAN_POINT('',(-16.,1.95943487863577E-15,-5.));
#289=CARTESIAN_POINT('Origin',(0.,0.,-5.));
#290=CARTESIAN_POINT('',(-16.,1.95943487863577E-15,0.));
#291=CARTESIAN_POINT('',(-16.,1.95943487863577E-15,0.));
#292=CARTESIAN_POINT('Origin',(0.,0.,0.));
#293=CARTESIAN_POINT('Origin',(0.,0.,-5.));
#294=CARTESIAN_POINT('Origin',(0.,0.,0.));
#295=CARTESIAN_POINT('',(-29.,-3.55147571752732E-15,12.));
#296=CARTESIAN_POINT('Origin',(0.,0.,12.));
#297=CARTESIAN_POINT('',(-29.,-3.55147571752732E-15,0.));
#298=CARTESIAN_POINT('',(-29.,-3.55147571752732E-15,0.));
#299=CARTESIAN_POINT('Origin',(0.,0.,0.));
#300=CARTESIAN_POINT('Origin',(0.,0.,12.));
#301=CARTESIAN_POINT('Origin',(0.,0.,0.));
#302=UNCERTAINTY_MEASURE_WITH_UNIT(LENGTH_MEASURE(0.01),#306,
'DISTANCE_ACCURACY_VALUE',
'Maximum model space distance between geometric entities at asserted c
onnectivities');
#303=UNCERTAINTY_MEASURE_WITH_UNIT(LENGTH_MEASURE(0.01),#306,
'DISTANCE_ACCURACY_VALUE',
'Maximum model space distance between geometric entities at asserted c
onnectivities');
#304=(
GEOMETRIC_REPRESENTATION_CONTEXT(3)
GLOBAL_UNCERTAINTY_ASSIGNED_CONTEXT((#302))
GLOBAL_UNIT_ASSIGNED_CONTEXT((#306,#308,#309))
REPRESENTATION_CONTEXT('','3D')
);
#305=(
GEOMETRIC_REPRESENTATION_CONTEXT(3)
GLOBAL_UNCERTAINTY_ASSIGNED_CONTEXT((#303))
GLOBAL_UNIT_ASSIGNED_CONTEXT((#306,#308,#309))
REPRESENTATION_CONTEXT('','3D')
);
#306=(
LENGTH_UNIT()
NAMED_UNIT(*)
SI_UNIT(.MILLI.,.METRE.)
);
#307=(
LENGTH_UNIT()
NAMED_UNIT(*)
SI_UNIT($,.METRE.)
);
#308=(
NAMED_UNIT(*)
PLANE_ANGLE_UNIT()
SI_UNIT($,.RADIAN.)
);
#309=(
NAMED_UNIT(*)
SI_UNIT($,.STERADIAN.)
SOLID_ANGLE_UNIT()
);
#310=SHAPE_DEFINITION_REPRESENTATION(#311,#312);
#311=PRODUCT_DEFINITION_SHAPE('',$,#314);
#312=SHAPE_REPRESENTATION('',(#178),#304);
#313=PRODUCT_DEFINITION_CONTEXT('part definition',#318,'design');
#314=PRODUCT_DEFINITION('diabolo np creation','diabolo np creation v1',
#315,#313);
#315=PRODUCT_DEFINITION_FORMATION('',$,#320);
#316=PRODUCT_RELATED_PRODUCT_CATEGORY('diabolo np creation v1',
'diabolo np creation v1',(#320));
#317=APPLICATION_PROTOCOL_DEFINITION('international standard',
'automotive_design',2009,#318);
#318=APPLICATION_CONTEXT(
'Core Data for Automotive Mechanical Design Process');
#319=PRODUCT_CONTEXT('part definition',#318,'mechanical');
#320=PRODUCT('diabolo np creation','diabolo np creation v1',$,(#319));
#321=PRESENTATION_STYLE_ASSIGNMENT((#322));
#322=SURFACE_STYLE_USAGE(.BOTH.,#323);
#323=SURFACE_SIDE_STYLE('',(#324));
#324=SURFACE_STYLE_FILL_AREA(#325);
#325=FILL_AREA_STYLE('Steel - Satin',(#326));
#326=FILL_AREA_STYLE_COLOUR('Steel - Satin',#327);
#327=COLOUR_RGB('Steel - Satin',0.627450980392157,0.627450980392157,0.627450980392157);
ENDSEC;
END-ISO-10303-21;
