ISO-10303-21;
HEADER;
FILE_DESCRIPTION(('CATIA V5 STEP Exchange'),'2;1');

FILE_NAME('C:\\Users\\Timoth\X2\00E9\X0\e\\Desktop\\AeroIpsa\\Cygogne\\M\X2\00E9\X0\ca\\CAO\\Bloc propu\\usinage\\Tete triangulaire.stp','2019-01-27T03:40:06+00:00',('none'),('none'),'CATIA Version 5 Release 21 GA (IN-10)','CATIA V5 STEP AP203','none');

FILE_SCHEMA(('CONFIG_CONTROL_DESIGN'));

ENDSEC;
/* file written by CATIA V5R21 */
DATA;
#5=PRODUCT('Tete triangulaire','','',(#2)) ;
#1=APPLICATION_CONTEXT('configuration controlled 3D design of mechanical parts and assemblies') ;
#14=PRODUCT_DEFINITION('',' ',#6,#3) ;
#16=SECURITY_CLASSIFICATION(' ',' ',#15) ;
#15=SECURITY_CLASSIFICATION_LEVEL('unclassified') ;
#47=CARTESIAN_POINT(' ',(0.,0.,0.)) ;
#52=CARTESIAN_POINT('Axis2P3D Location',(0.,-4.,0.)) ;
#57=CARTESIAN_POINT('Line Origine',(0.,-4.,2.5)) ;
#61=CARTESIAN_POINT('Vertex',(-1.,-4.,2.5)) ;
#63=CARTESIAN_POINT('Vertex',(1.,-4.,2.5)) ;
#66=CARTESIAN_POINT('Axis2P3D Location',(-1.,-4.,0.)) ;
#70=CARTESIAN_POINT('Vertex',(-1.,-5.32499735001,-2.11999576001)) ;
#73=CARTESIAN_POINT('Line Origine',(0.,-5.32499735001,-2.11999576001)) ;
#77=CARTESIAN_POINT('Vertex',(1.,-5.32499735001,-2.11999576001)) ;
#80=CARTESIAN_POINT('Axis2P3D Location',(1.,-4.,0.)) ;
#92=CARTESIAN_POINT('Axis2P3D Location',(0.,2.67500264999,-7.11999576001)) ;
#97=CARTESIAN_POINT('Line Origine',(-1.,-1.32499735001,-4.61999576001)) ;
#101=CARTESIAN_POINT('Vertex',(-1.,2.67500264999,-7.11999576001)) ;
#104=CARTESIAN_POINT('Line Origine',(0.,2.67500264999,-7.11999576001)) ;
#108=CARTESIAN_POINT('Vertex',(1.,2.67500264999,-7.11999576001)) ;
#111=CARTESIAN_POINT('Line Origine',(1.,-1.32499735001,-4.61999576001)) ;
#123=CARTESIAN_POINT('Axis2P3D Location',(0.,4.,-5.)) ;
#128=CARTESIAN_POINT('Axis2P3D Location',(-1.,4.,-5.)) ;
#132=CARTESIAN_POINT('Vertex',(-1.,6.5,-5.)) ;
#135=CARTESIAN_POINT('Line Origine',(0.,6.5,-5.)) ;
#139=CARTESIAN_POINT('Vertex',(1.,6.5,-5.)) ;
#142=CARTESIAN_POINT('Axis2P3D Location',(1.,4.,-5.)) ;
#154=CARTESIAN_POINT('Axis2P3D Location',(0.,6.5,-5.)) ;
#159=CARTESIAN_POINT('Line Origine',(-1.,6.5,-2.5)) ;
#163=CARTESIAN_POINT('Vertex',(-1.,6.5,0.)) ;
#166=CARTESIAN_POINT('Line Origine',(0.,6.5,0.)) ;
#170=CARTESIAN_POINT('Vertex',(1.,6.5,0.)) ;
#173=CARTESIAN_POINT('Line Origine',(1.,6.5,-2.5)) ;
#185=CARTESIAN_POINT('Axis2P3D Location',(0.,4.,0.)) ;
#190=CARTESIAN_POINT('Axis2P3D Location',(-1.,4.,0.)) ;
#194=CARTESIAN_POINT('Vertex',(-1.,4.,2.5)) ;
#197=CARTESIAN_POINT('Line Origine',(0.,4.,2.5)) ;
#201=CARTESIAN_POINT('Vertex',(1.,4.,2.5)) ;
#204=CARTESIAN_POINT('Axis2P3D Location',(1.,4.,0.)) ;
#216=CARTESIAN_POINT('Axis2P3D Location',(0.,4.,2.5)) ;
#221=CARTESIAN_POINT('Line Origine',(-1.,0.,2.5)) ;
#226=CARTESIAN_POINT('Line Origine',(1.,0.,2.5)) ;
#238=CARTESIAN_POINT('Axis2P3D Location',(0.,-4.,0.)) ;
#243=CARTESIAN_POINT('Axis2P3D Location',(1.,-4.,0.)) ;
#247=CARTESIAN_POINT('Vertex',(1.,-5.5,1.83690953073E-016)) ;
#249=CARTESIAN_POINT('Vertex',(1.,-2.5,0.)) ;
#252=CARTESIAN_POINT('Line Origine',(0.,-2.5,-3.67381906147E-016)) ;
#256=CARTESIAN_POINT('Vertex',(-1.,-2.5,0.)) ;
#259=CARTESIAN_POINT('Axis2P3D Location',(-1.,-4.,0.)) ;
#263=CARTESIAN_POINT('Vertex',(-1.,-5.5,1.83690953073E-016)) ;
#266=CARTESIAN_POINT('Line Origine',(0.,-5.5,1.83690953073E-016)) ;
#278=CARTESIAN_POINT('Axis2P3D Location',(1.,-4.,0.)) ;
#283=CARTESIAN_POINT('Axis2P3D Location',(-1.,-4.,0.)) ;
#295=CARTESIAN_POINT('Axis2P3D Location',(0.,4.,0.)) ;
#300=CARTESIAN_POINT('Axis2P3D Location',(1.,4.,0.)) ;
#304=CARTESIAN_POINT('Vertex',(1.,5.5,-3.67381906147E-016)) ;
#306=CARTESIAN_POINT('Vertex',(1.,2.5,1.83690953073E-016)) ;
#309=CARTESIAN_POINT('Line Origine',(0.,2.5,5.5107285922E-016)) ;
#313=CARTESIAN_POINT('Vertex',(-1.,2.5,1.83690953073E-016)) ;
#316=CARTESIAN_POINT('Axis2P3D Location',(-1.,4.,0.)) ;
#320=CARTESIAN_POINT('Vertex',(-1.,5.5,-3.67381906147E-016)) ;
#323=CARTESIAN_POINT('Line Origine',(0.,5.5,-3.67381906147E-016)) ;
#335=CARTESIAN_POINT('Axis2P3D Location',(1.,4.,0.)) ;
#340=CARTESIAN_POINT('Axis2P3D Location',(-1.,4.,0.)) ;
#352=CARTESIAN_POINT('Axis2P3D Location',(0.,4.,-5.)) ;
#357=CARTESIAN_POINT('Axis2P3D Location',(1.,4.,-5.)) ;
#361=CARTESIAN_POINT('Vertex',(1.,2.5,-5.)) ;
#363=CARTESIAN_POINT('Vertex',(1.,5.5,-5.)) ;
#366=CARTESIAN_POINT('Line Origine',(0.,5.5,-5.)) ;
#370=CARTESIAN_POINT('Vertex',(-1.,5.5,-5.)) ;
#373=CARTESIAN_POINT('Axis2P3D Location',(-1.,4.,-5.)) ;
#377=CARTESIAN_POINT('Vertex',(-1.,2.5,-5.)) ;
#380=CARTESIAN_POINT('Line Origine',(0.,2.5,-5.)) ;
#392=CARTESIAN_POINT('Axis2P3D Location',(1.,4.,-5.)) ;
#397=CARTESIAN_POINT('Axis2P3D Location',(-1.,4.,-5.)) ;
#409=CARTESIAN_POINT('Axis2P3D Location',(-1.,0.,0.)) ;
#435=CARTESIAN_POINT('Axis2P3D Location',(1.,0.,0.)) ;
#53=DIRECTION('Axis2P3D Direction',(1.,0.,0.)) ;
#54=DIRECTION('Axis2P3D XDirection',(0.,6.12303176911E-017,1.)) ;
#58=DIRECTION('Vector Direction',(1.,0.,0.)) ;
#67=DIRECTION('Axis2P3D Direction',(1.,0.,0.)) ;
#74=DIRECTION('Vector Direction',(1.,0.,0.)) ;
#81=DIRECTION('Axis2P3D Direction',(1.,0.,0.)) ;
#93=DIRECTION('Axis2P3D Direction',(-0.,0.529998940003,0.847998304005)) ;
#94=DIRECTION('Axis2P3D XDirection',(0.,-0.847998304005,0.529998940003)) ;
#98=DIRECTION('Vector Direction',(0.,-0.847998304005,0.529998940003)) ;
#105=DIRECTION('Vector Direction',(1.,0.,0.)) ;
#112=DIRECTION('Vector Direction',(0.,-0.847998304005,0.529998940003)) ;
#124=DIRECTION('Axis2P3D Direction',(1.,0.,0.)) ;
#125=DIRECTION('Axis2P3D XDirection',(-0.,-0.529998940003,-0.847998304005)) ;
#129=DIRECTION('Axis2P3D Direction',(1.,0.,0.)) ;
#136=DIRECTION('Vector Direction',(1.,0.,0.)) ;
#143=DIRECTION('Axis2P3D Direction',(1.,0.,0.)) ;
#155=DIRECTION('Axis2P3D Direction',(0.,1.,0.)) ;
#156=DIRECTION('Axis2P3D XDirection',(0.,0.,1.)) ;
#160=DIRECTION('Vector Direction',(0.,0.,1.)) ;
#167=DIRECTION('Vector Direction',(1.,0.,0.)) ;
#174=DIRECTION('Vector Direction',(0.,0.,1.)) ;
#186=DIRECTION('Axis2P3D Direction',(1.,0.,0.)) ;
#187=DIRECTION('Axis2P3D XDirection',(0.,1.,0.)) ;
#191=DIRECTION('Axis2P3D Direction',(1.,0.,0.)) ;
#198=DIRECTION('Vector Direction',(1.,0.,0.)) ;
#205=DIRECTION('Axis2P3D Direction',(1.,0.,0.)) ;
#217=DIRECTION('Axis2P3D Direction',(0.,-1.11022302463E-016,1.)) ;
#218=DIRECTION('Axis2P3D XDirection',(-0.,-1.,-1.11022302463E-016)) ;
#222=DIRECTION('Vector Direction',(0.,-1.,-1.11022302463E-016)) ;
#227=DIRECTION('Vector Direction',(0.,-1.,-1.11022302463E-016)) ;
#239=DIRECTION('Axis2P3D Direction',(1.,0.,0.)) ;
#240=DIRECTION('Axis2P3D XDirection',(0.,1.,0.)) ;
#244=DIRECTION('Axis2P3D Direction',(1.,0.,0.)) ;
#253=DIRECTION('Vector Direction',(1.,0.,0.)) ;
#260=DIRECTION('Axis2P3D Direction',(1.,0.,0.)) ;
#267=DIRECTION('Vector Direction',(1.,0.,0.)) ;
#279=DIRECTION('Axis2P3D Direction',(1.,0.,0.)) ;
#284=DIRECTION('Axis2P3D Direction',(1.,0.,0.)) ;
#296=DIRECTION('Axis2P3D Direction',(1.,0.,0.)) ;
#297=DIRECTION('Axis2P3D XDirection',(0.,-1.,1.22460635382E-016)) ;
#301=DIRECTION('Axis2P3D Direction',(1.,0.,0.)) ;
#310=DIRECTION('Vector Direction',(1.,0.,0.)) ;
#317=DIRECTION('Axis2P3D Direction',(1.,0.,0.)) ;
#324=DIRECTION('Vector Direction',(1.,0.,0.)) ;
#336=DIRECTION('Axis2P3D Direction',(1.,0.,0.)) ;
#341=DIRECTION('Axis2P3D Direction',(1.,0.,0.)) ;
#353=DIRECTION('Axis2P3D Direction',(1.,0.,0.)) ;
#354=DIRECTION('Axis2P3D XDirection',(0.,1.,0.)) ;
#358=DIRECTION('Axis2P3D Direction',(1.,0.,0.)) ;
#367=DIRECTION('Vector Direction',(1.,0.,0.)) ;
#374=DIRECTION('Axis2P3D Direction',(1.,0.,0.)) ;
#381=DIRECTION('Vector Direction',(1.,0.,0.)) ;
#393=DIRECTION('Axis2P3D Direction',(1.,0.,0.)) ;
#398=DIRECTION('Axis2P3D Direction',(1.,0.,0.)) ;
#410=DIRECTION('Axis2P3D Direction',(1.,0.,0.)) ;
#411=DIRECTION('Axis2P3D XDirection',(0.,1.,0.)) ;
#436=DIRECTION('Axis2P3D Direction',(1.,0.,0.)) ;
#437=DIRECTION('Axis2P3D XDirection',(0.,1.,0.)) ;
#48=AXIS2_PLACEMENT_3D(' ',#47,$,$) ;
#55=AXIS2_PLACEMENT_3D('Cylinder Axis2P3D',#52,#53,#54) ;
#68=AXIS2_PLACEMENT_3D('Circle Axis2P3D',#66,#67,$) ;
#82=AXIS2_PLACEMENT_3D('Circle Axis2P3D',#80,#81,$) ;
#95=AXIS2_PLACEMENT_3D('Plane Axis2P3D',#92,#93,#94) ;
#126=AXIS2_PLACEMENT_3D('Cylinder Axis2P3D',#123,#124,#125) ;
#130=AXIS2_PLACEMENT_3D('Circle Axis2P3D',#128,#129,$) ;
#144=AXIS2_PLACEMENT_3D('Circle Axis2P3D',#142,#143,$) ;
#157=AXIS2_PLACEMENT_3D('Plane Axis2P3D',#154,#155,#156) ;
#188=AXIS2_PLACEMENT_3D('Cylinder Axis2P3D',#185,#186,#187) ;
#192=AXIS2_PLACEMENT_3D('Circle Axis2P3D',#190,#191,$) ;
#206=AXIS2_PLACEMENT_3D('Circle Axis2P3D',#204,#205,$) ;
#219=AXIS2_PLACEMENT_3D('Plane Axis2P3D',#216,#217,#218) ;
#241=AXIS2_PLACEMENT_3D('Cylinder Axis2P3D',#238,#239,#240) ;
#245=AXIS2_PLACEMENT_3D('Circle Axis2P3D',#243,#244,$) ;
#261=AXIS2_PLACEMENT_3D('Circle Axis2P3D',#259,#260,$) ;
#280=AXIS2_PLACEMENT_3D('Circle Axis2P3D',#278,#279,$) ;
#285=AXIS2_PLACEMENT_3D('Circle Axis2P3D',#283,#284,$) ;
#298=AXIS2_PLACEMENT_3D('Cylinder Axis2P3D',#295,#296,#297) ;
#302=AXIS2_PLACEMENT_3D('Circle Axis2P3D',#300,#301,$) ;
#318=AXIS2_PLACEMENT_3D('Circle Axis2P3D',#316,#317,$) ;
#337=AXIS2_PLACEMENT_3D('Circle Axis2P3D',#335,#336,$) ;
#342=AXIS2_PLACEMENT_3D('Circle Axis2P3D',#340,#341,$) ;
#355=AXIS2_PLACEMENT_3D('Cylinder Axis2P3D',#352,#353,#354) ;
#359=AXIS2_PLACEMENT_3D('Circle Axis2P3D',#357,#358,$) ;
#375=AXIS2_PLACEMENT_3D('Circle Axis2P3D',#373,#374,$) ;
#394=AXIS2_PLACEMENT_3D('Circle Axis2P3D',#392,#393,$) ;
#399=AXIS2_PLACEMENT_3D('Circle Axis2P3D',#397,#398,$) ;
#412=AXIS2_PLACEMENT_3D('Plane Axis2P3D',#409,#410,#411) ;
#438=AXIS2_PLACEMENT_3D('Plane Axis2P3D',#435,#436,#437) ;
#40=PRODUCT_DEFINITION_SHAPE(' ',' ',#14) ;
#31=APPROVAL_PERSON_ORGANIZATION(#25,#21,#19) ;
#25=PERSON_AND_ORGANIZATION(#22,#23) ;
#22=PERSON(' ',' ',' ',$,$,$) ;
#23=ORGANIZATION(' ',' ',' ') ;
#21=APPROVAL(#20,' ') ;
#20=APPROVAL_STATUS('not_yet_approved') ;
#19=APPROVAL_ROLE('APPROVER') ;
#13=DATE_AND_TIME(#11,#12) ;
#12=LOCAL_TIME(4,40,6.,#10) ;
#10=COORDINATED_UNIVERSAL_TIME_OFFSET(0,0,.AHEAD.) ;
#86=ORIENTED_EDGE('',*,*,#65,.F.) ;
#87=ORIENTED_EDGE('',*,*,#72,.T.) ;
#88=ORIENTED_EDGE('',*,*,#79,.T.) ;
#89=ORIENTED_EDGE('',*,*,#84,.F.) ;
#117=ORIENTED_EDGE('',*,*,#79,.F.) ;
#118=ORIENTED_EDGE('',*,*,#103,.T.) ;
#119=ORIENTED_EDGE('',*,*,#110,.T.) ;
#120=ORIENTED_EDGE('',*,*,#115,.F.) ;
#148=ORIENTED_EDGE('',*,*,#110,.F.) ;
#149=ORIENTED_EDGE('',*,*,#134,.T.) ;
#150=ORIENTED_EDGE('',*,*,#141,.T.) ;
#151=ORIENTED_EDGE('',*,*,#146,.F.) ;
#179=ORIENTED_EDGE('',*,*,#141,.F.) ;
#180=ORIENTED_EDGE('',*,*,#165,.T.) ;
#181=ORIENTED_EDGE('',*,*,#172,.T.) ;
#182=ORIENTED_EDGE('',*,*,#177,.F.) ;
#210=ORIENTED_EDGE('',*,*,#172,.F.) ;
#211=ORIENTED_EDGE('',*,*,#196,.T.) ;
#212=ORIENTED_EDGE('',*,*,#203,.T.) ;
#213=ORIENTED_EDGE('',*,*,#208,.F.) ;
#232=ORIENTED_EDGE('',*,*,#203,.F.) ;
#233=ORIENTED_EDGE('',*,*,#225,.T.) ;
#234=ORIENTED_EDGE('',*,*,#65,.T.) ;
#235=ORIENTED_EDGE('',*,*,#230,.F.) ;
#272=ORIENTED_EDGE('',*,*,#251,.T.) ;
#273=ORIENTED_EDGE('',*,*,#258,.F.) ;
#274=ORIENTED_EDGE('',*,*,#265,.F.) ;
#275=ORIENTED_EDGE('',*,*,#270,.T.) ;
#289=ORIENTED_EDGE('',*,*,#282,.T.) ;
#290=ORIENTED_EDGE('',*,*,#270,.F.) ;
#291=ORIENTED_EDGE('',*,*,#287,.F.) ;
#292=ORIENTED_EDGE('',*,*,#258,.T.) ;
#329=ORIENTED_EDGE('',*,*,#308,.T.) ;
#330=ORIENTED_EDGE('',*,*,#315,.F.) ;
#331=ORIENTED_EDGE('',*,*,#322,.F.) ;
#332=ORIENTED_EDGE('',*,*,#327,.T.) ;
#346=ORIENTED_EDGE('',*,*,#339,.T.) ;
#347=ORIENTED_EDGE('',*,*,#327,.F.) ;
#348=ORIENTED_EDGE('',*,*,#344,.F.) ;
#349=ORIENTED_EDGE('',*,*,#315,.T.) ;
#386=ORIENTED_EDGE('',*,*,#365,.T.) ;
#387=ORIENTED_EDGE('',*,*,#372,.F.) ;
#388=ORIENTED_EDGE('',*,*,#379,.F.) ;
#389=ORIENTED_EDGE('',*,*,#384,.T.) ;
#403=ORIENTED_EDGE('',*,*,#396,.T.) ;
#404=ORIENTED_EDGE('',*,*,#384,.F.) ;
#405=ORIENTED_EDGE('',*,*,#401,.F.) ;
#406=ORIENTED_EDGE('',*,*,#372,.T.) ;
#415=ORIENTED_EDGE('',*,*,#225,.F.) ;
#416=ORIENTED_EDGE('',*,*,#196,.F.) ;
#417=ORIENTED_EDGE('',*,*,#165,.F.) ;
#418=ORIENTED_EDGE('',*,*,#134,.F.) ;
#419=ORIENTED_EDGE('',*,*,#103,.F.) ;
#420=ORIENTED_EDGE('',*,*,#72,.F.) ;
#423=ORIENTED_EDGE('',*,*,#287,.T.) ;
#424=ORIENTED_EDGE('',*,*,#265,.T.) ;
#427=ORIENTED_EDGE('',*,*,#344,.T.) ;
#428=ORIENTED_EDGE('',*,*,#322,.T.) ;
#431=ORIENTED_EDGE('',*,*,#401,.T.) ;
#432=ORIENTED_EDGE('',*,*,#379,.T.) ;
#441=ORIENTED_EDGE('',*,*,#84,.T.) ;
#442=ORIENTED_EDGE('',*,*,#115,.T.) ;
#443=ORIENTED_EDGE('',*,*,#146,.T.) ;
#444=ORIENTED_EDGE('',*,*,#177,.T.) ;
#445=ORIENTED_EDGE('',*,*,#208,.T.) ;
#446=ORIENTED_EDGE('',*,*,#230,.T.) ;
#449=ORIENTED_EDGE('',*,*,#251,.F.) ;
#450=ORIENTED_EDGE('',*,*,#282,.F.) ;
#453=ORIENTED_EDGE('',*,*,#308,.F.) ;
#454=ORIENTED_EDGE('',*,*,#339,.F.) ;
#457=ORIENTED_EDGE('',*,*,#365,.F.) ;
#458=ORIENTED_EDGE('',*,*,#396,.F.) ;
#425=FACE_BOUND('',#422,.T.) ;
#429=FACE_BOUND('',#426,.T.) ;
#433=FACE_BOUND('',#430,.T.) ;
#451=FACE_BOUND('',#448,.T.) ;
#455=FACE_BOUND('',#452,.T.) ;
#459=FACE_BOUND('',#456,.T.) ;
#51=CLOSED_SHELL('Closed Shell',(#91,#122,#153,#184,#215,#237,#277,#294,#334,#351,#391,#408,#434,#460)) ;
#59=VECTOR('Line Direction',#58,1.) ;
#75=VECTOR('Line Direction',#74,1.) ;
#99=VECTOR('Line Direction',#98,1.) ;
#106=VECTOR('Line Direction',#105,1.) ;
#113=VECTOR('Line Direction',#112,1.) ;
#137=VECTOR('Line Direction',#136,1.) ;
#161=VECTOR('Line Direction',#160,1.) ;
#168=VECTOR('Line Direction',#167,1.) ;
#175=VECTOR('Line Direction',#174,1.) ;
#199=VECTOR('Line Direction',#198,1.) ;
#223=VECTOR('Line Direction',#222,1.) ;
#228=VECTOR('Line Direction',#227,1.) ;
#254=VECTOR('Line Direction',#253,1.) ;
#268=VECTOR('Line Direction',#267,1.) ;
#311=VECTOR('Line Direction',#310,1.) ;
#325=VECTOR('Line Direction',#324,1.) ;
#368=VECTOR('Line Direction',#367,1.) ;
#382=VECTOR('Line Direction',#381,1.) ;
#462=ADVANCED_BREP_SHAPE_REPRESENTATION('NONE',(#461),#46) ;
#49=SHAPE_REPRESENTATION(' ',(#48),#46) ;
#91=ADVANCED_FACE('Corps principal',(#90),#56,.T.) ;
#122=ADVANCED_FACE('Corps principal',(#121),#96,.F.) ;
#153=ADVANCED_FACE('Corps principal',(#152),#127,.T.) ;
#184=ADVANCED_FACE('Corps principal',(#183),#158,.T.) ;
#215=ADVANCED_FACE('Corps principal',(#214),#189,.T.) ;
#237=ADVANCED_FACE('Corps principal',(#236),#220,.T.) ;
#277=ADVANCED_FACE('Corps principal',(#276),#242,.F.) ;
#294=ADVANCED_FACE('Corps principal',(#293),#242,.F.) ;
#334=ADVANCED_FACE('Corps principal',(#333),#299,.F.) ;
#351=ADVANCED_FACE('Corps principal',(#350),#299,.F.) ;
#391=ADVANCED_FACE('Corps principal',(#390),#356,.F.) ;
#408=ADVANCED_FACE('Corps principal',(#407),#356,.F.) ;
#434=ADVANCED_FACE('Corps principal',(#421,#425,#429,#433),#413,.F.) ;
#460=ADVANCED_FACE('Corps principal',(#447,#451,#455,#459),#439,.T.) ;
#4=APPLICATION_PROTOCOL_DEFINITION('international standard','config_control_design',1994,#1) ;
#32=APPROVAL_DATE_TIME(#13,#21) ;
#461=MANIFOLD_SOLID_BREP('Corps principal',#51) ;
#11=CALENDAR_DATE(2019,27,1) ;
#30=CC_DESIGN_APPROVAL(#21,(#16,#6,#14)) ;
#18=CC_DESIGN_DATE_AND_TIME_ASSIGNMENT(#13,#17,(#16)) ;
#29=CC_DESIGN_DATE_AND_TIME_ASSIGNMENT(#13,#28,(#14)) ;
#17=DATE_TIME_ROLE('classification_date') ;
#28=DATE_TIME_ROLE('creation_date') ;
#27=CC_DESIGN_PERSON_AND_ORGANIZATION_ASSIGNMENT(#25,#26,(#16)) ;
#33=CC_DESIGN_PERSON_AND_ORGANIZATION_ASSIGNMENT(#25,#34,(#6)) ;
#35=CC_DESIGN_PERSON_AND_ORGANIZATION_ASSIGNMENT(#25,#36,(#6,#14)) ;
#37=CC_DESIGN_PERSON_AND_ORGANIZATION_ASSIGNMENT(#25,#38,(#5)) ;
#26=PERSON_AND_ORGANIZATION_ROLE('classification_officer') ;
#34=PERSON_AND_ORGANIZATION_ROLE('design_supplier') ;
#36=PERSON_AND_ORGANIZATION_ROLE('creator') ;
#38=PERSON_AND_ORGANIZATION_ROLE('design_owner') ;
#39=CC_DESIGN_SECURITY_CLASSIFICATION(#16,(#6)) ;
#69=CIRCLE('generated circle',#68,2.5) ;
#83=CIRCLE('generated circle',#82,2.5) ;
#131=CIRCLE('generated circle',#130,2.5) ;
#145=CIRCLE('generated circle',#144,2.5) ;
#193=CIRCLE('generated circle',#192,2.5) ;
#207=CIRCLE('generated circle',#206,2.5) ;
#246=CIRCLE('generated circle',#245,1.5) ;
#262=CIRCLE('generated circle',#261,1.5) ;
#281=CIRCLE('generated circle',#280,1.5) ;
#286=CIRCLE('generated circle',#285,1.5) ;
#303=CIRCLE('generated circle',#302,1.5) ;
#319=CIRCLE('generated circle',#318,1.5) ;
#338=CIRCLE('generated circle',#337,1.5) ;
#343=CIRCLE('generated circle',#342,1.5) ;
#360=CIRCLE('generated circle',#359,1.5) ;
#376=CIRCLE('generated circle',#375,1.5) ;
#395=CIRCLE('generated circle',#394,1.5) ;
#400=CIRCLE('generated circle',#399,1.5) ;
#463=SHAPE_REPRESENTATION_RELATIONSHIP(' ',' ',#49,#462) ;
#56=CYLINDRICAL_SURFACE('generated cylinder',#55,2.5) ;
#127=CYLINDRICAL_SURFACE('generated cylinder',#126,2.5) ;
#189=CYLINDRICAL_SURFACE('generated cylinder',#188,2.5) ;
#242=CYLINDRICAL_SURFACE('generated cylinder',#241,1.5) ;
#299=CYLINDRICAL_SURFACE('generated cylinder',#298,1.5) ;
#356=CYLINDRICAL_SURFACE('generated cylinder',#355,1.5) ;
#3=DESIGN_CONTEXT(' ',#1,'design') ;
#65=EDGE_CURVE('',#62,#64,#60,.T.) ;
#72=EDGE_CURVE('',#62,#71,#69,.T.) ;
#79=EDGE_CURVE('',#71,#78,#76,.T.) ;
#84=EDGE_CURVE('',#64,#78,#83,.T.) ;
#103=EDGE_CURVE('',#71,#102,#100,.F.) ;
#110=EDGE_CURVE('',#102,#109,#107,.T.) ;
#115=EDGE_CURVE('',#78,#109,#114,.F.) ;
#134=EDGE_CURVE('',#102,#133,#131,.T.) ;
#141=EDGE_CURVE('',#133,#140,#138,.T.) ;
#146=EDGE_CURVE('',#109,#140,#145,.T.) ;
#165=EDGE_CURVE('',#133,#164,#162,.T.) ;
#172=EDGE_CURVE('',#164,#171,#169,.T.) ;
#177=EDGE_CURVE('',#140,#171,#176,.T.) ;
#196=EDGE_CURVE('',#164,#195,#193,.T.) ;
#203=EDGE_CURVE('',#195,#202,#200,.T.) ;
#208=EDGE_CURVE('',#171,#202,#207,.T.) ;
#225=EDGE_CURVE('',#195,#62,#224,.T.) ;
#230=EDGE_CURVE('',#202,#64,#229,.T.) ;
#251=EDGE_CURVE('',#248,#250,#246,.T.) ;
#258=EDGE_CURVE('',#257,#250,#255,.T.) ;
#265=EDGE_CURVE('',#264,#257,#262,.T.) ;
#270=EDGE_CURVE('',#264,#248,#269,.T.) ;
#282=EDGE_CURVE('',#250,#248,#281,.T.) ;
#287=EDGE_CURVE('',#257,#264,#286,.T.) ;
#308=EDGE_CURVE('',#305,#307,#303,.T.) ;
#315=EDGE_CURVE('',#314,#307,#312,.T.) ;
#322=EDGE_CURVE('',#321,#314,#319,.T.) ;
#327=EDGE_CURVE('',#321,#305,#326,.T.) ;
#339=EDGE_CURVE('',#307,#305,#338,.T.) ;
#344=EDGE_CURVE('',#314,#321,#343,.T.) ;
#365=EDGE_CURVE('',#362,#364,#360,.T.) ;
#372=EDGE_CURVE('',#371,#364,#369,.T.) ;
#379=EDGE_CURVE('',#378,#371,#376,.T.) ;
#384=EDGE_CURVE('',#378,#362,#383,.T.) ;
#396=EDGE_CURVE('',#364,#362,#395,.T.) ;
#401=EDGE_CURVE('',#371,#378,#400,.T.) ;
#85=EDGE_LOOP('',(#86,#87,#88,#89)) ;
#116=EDGE_LOOP('',(#117,#118,#119,#120)) ;
#147=EDGE_LOOP('',(#148,#149,#150,#151)) ;
#178=EDGE_LOOP('',(#179,#180,#181,#182)) ;
#209=EDGE_LOOP('',(#210,#211,#212,#213)) ;
#231=EDGE_LOOP('',(#232,#233,#234,#235)) ;
#271=EDGE_LOOP('',(#272,#273,#274,#275)) ;
#288=EDGE_LOOP('',(#289,#290,#291,#292)) ;
#328=EDGE_LOOP('',(#329,#330,#331,#332)) ;
#345=EDGE_LOOP('',(#346,#347,#348,#349)) ;
#385=EDGE_LOOP('',(#386,#387,#388,#389)) ;
#402=EDGE_LOOP('',(#403,#404,#405,#406)) ;
#414=EDGE_LOOP('',(#415,#416,#417,#418,#419,#420)) ;
#422=EDGE_LOOP('',(#423,#424)) ;
#426=EDGE_LOOP('',(#427,#428)) ;
#430=EDGE_LOOP('',(#431,#432)) ;
#440=EDGE_LOOP('',(#441,#442,#443,#444,#445,#446)) ;
#448=EDGE_LOOP('',(#449,#450)) ;
#452=EDGE_LOOP('',(#453,#454)) ;
#456=EDGE_LOOP('',(#457,#458)) ;
#90=FACE_OUTER_BOUND('',#85,.T.) ;
#121=FACE_OUTER_BOUND('',#116,.T.) ;
#152=FACE_OUTER_BOUND('',#147,.T.) ;
#183=FACE_OUTER_BOUND('',#178,.T.) ;
#214=FACE_OUTER_BOUND('',#209,.T.) ;
#236=FACE_OUTER_BOUND('',#231,.T.) ;
#276=FACE_OUTER_BOUND('',#271,.T.) ;
#293=FACE_OUTER_BOUND('',#288,.T.) ;
#333=FACE_OUTER_BOUND('',#328,.T.) ;
#350=FACE_OUTER_BOUND('',#345,.T.) ;
#390=FACE_OUTER_BOUND('',#385,.T.) ;
#407=FACE_OUTER_BOUND('',#402,.T.) ;
#421=FACE_OUTER_BOUND('',#414,.T.) ;
#447=FACE_OUTER_BOUND('',#440,.T.) ;
#45=UNCERTAINTY_MEASURE_WITH_UNIT(LENGTH_MEASURE(0.005),#41,'distance_accuracy_value','CONFUSED CURVE UNCERTAINTY') ;
#60=LINE('Line',#57,#59) ;
#76=LINE('Line',#73,#75) ;
#100=LINE('Line',#97,#99) ;
#107=LINE('Line',#104,#106) ;
#114=LINE('Line',#111,#113) ;
#138=LINE('Line',#135,#137) ;
#162=LINE('Line',#159,#161) ;
#169=LINE('Line',#166,#168) ;
#176=LINE('Line',#173,#175) ;
#200=LINE('Line',#197,#199) ;
#224=LINE('Line',#221,#223) ;
#229=LINE('Line',#226,#228) ;
#255=LINE('Line',#252,#254) ;
#269=LINE('Line',#266,#268) ;
#312=LINE('Line',#309,#311) ;
#326=LINE('Line',#323,#325) ;
#369=LINE('Line',#366,#368) ;
#383=LINE('Line',#380,#382) ;
#2=MECHANICAL_CONTEXT(' ',#1,'mechanical') ;
#24=PERSONAL_ADDRESS(' ',' ',' ',' ',' ',' ',' ',' ',' ',' ',' ',' ',(#22),' ') ;
#96=PLANE('',#95) ;
#158=PLANE('',#157) ;
#220=PLANE('',#219) ;
#413=PLANE('',#412) ;
#439=PLANE('',#438) ;
#43=PLANE_ANGLE_MEASURE_WITH_UNIT(PLANE_ANGLE_MEASURE(0.0174532925199),#42) ;
#7=PRODUCT_CATEGORY('part',$) ;
#9=PRODUCT_CATEGORY_RELATIONSHIP(' ',' ',#7,#8) ;
#6=PRODUCT_DEFINITION_FORMATION_WITH_SPECIFIED_SOURCE('',' ',#5,.NOT_KNOWN.) ;
#8=PRODUCT_RELATED_PRODUCT_CATEGORY('detail',$,(#5)) ;
#50=SHAPE_DEFINITION_REPRESENTATION(#40,#49) ;
#62=VERTEX_POINT('',#61) ;
#64=VERTEX_POINT('',#63) ;
#71=VERTEX_POINT('',#70) ;
#78=VERTEX_POINT('',#77) ;
#102=VERTEX_POINT('',#101) ;
#109=VERTEX_POINT('',#108) ;
#133=VERTEX_POINT('',#132) ;
#140=VERTEX_POINT('',#139) ;
#164=VERTEX_POINT('',#163) ;
#171=VERTEX_POINT('',#170) ;
#195=VERTEX_POINT('',#194) ;
#202=VERTEX_POINT('',#201) ;
#248=VERTEX_POINT('',#247) ;
#250=VERTEX_POINT('',#249) ;
#257=VERTEX_POINT('',#256) ;
#264=VERTEX_POINT('',#263) ;
#305=VERTEX_POINT('',#304) ;
#307=VERTEX_POINT('',#306) ;
#314=VERTEX_POINT('',#313) ;
#321=VERTEX_POINT('',#320) ;
#362=VERTEX_POINT('',#361) ;
#364=VERTEX_POINT('',#363) ;
#371=VERTEX_POINT('',#370) ;
#378=VERTEX_POINT('',#377) ;
#41=(LENGTH_UNIT()NAMED_UNIT(*)SI_UNIT(.MILLI.,.METRE.)) ;
#42=(NAMED_UNIT(*)PLANE_ANGLE_UNIT()SI_UNIT($,.RADIAN.)) ;
#44=(NAMED_UNIT(*)SI_UNIT($,.STERADIAN.)SOLID_ANGLE_UNIT()) ;
#46=(GEOMETRIC_REPRESENTATION_CONTEXT(3)GLOBAL_UNCERTAINTY_ASSIGNED_CONTEXT((#45))GLOBAL_UNIT_ASSIGNED_CONTEXT((#41,#42,#44))REPRESENTATION_CONTEXT(' ',' ')) ;
ENDSEC;
END-ISO-10303-21;
