ISO-10303-21;
HEADER;
/* Generated by software containing ST-Developer
 * from STEP Tools, Inc. (www.steptools.com) 
 */

FILE_DESCRIPTION(
/* description */ (''),
/* implementation_level */ '2;1');

FILE_NAME(
/* name */ '//nas/famille/Bricolage/Usinage m\X\E9tal/palier bronze.st
ep',
/* time_stamp */ '2019-01-20T19:53:08+01:00',
/* author */ (''),
/* organization */ (''),
/* preprocessor_version */ 'ST-DEVELOPER v17.2',
/* originating_system */ 'Autodesk Translation Framework v7.6.0.251',
/* authorisation */ '');

FILE_SCHEMA (('AUTOMOTIVE_DESIGN { 1 0 10303 214 3 1 1 }'));
ENDSEC;

DATA;
#10=MECHANICAL_DESIGN_GEOMETRIC_PRESENTATION_REPRESENTATION('',(#13),#250);
#11=SHAPE_REPRESENTATION_RELATIONSHIP('SRR','None',#257,#12);
#12=ADVANCED_BREP_SHAPE_REPRESENTATION('',(#14),#249);
#13=STYLED_ITEM('',(#266),#14);
#14=MANIFOLD_SOLID_BREP('Body1',#130);
#15=CYLINDRICAL_SURFACE('',#163,1.585);
#16=SPHERICAL_SURFACE('',#153,4.485);
#17=FACE_BOUND('',#30,.T.);
#18=FACE_BOUND('',#32,.T.);
#19=FACE_BOUND('',#34,.T.);
#20=PLANE('',#149);
#21=PLANE('',#157);
#22=FACE_OUTER_BOUND('',#28,.T.);
#23=FACE_OUTER_BOUND('',#29,.T.);
#24=FACE_OUTER_BOUND('',#31,.T.);
#25=FACE_OUTER_BOUND('',#33,.T.);
#26=FACE_OUTER_BOUND('',#35,.T.);
#27=FACE_OUTER_BOUND('',#36,.T.);
#28=EDGE_LOOP('',(#88,#89,#90,#91,#92,#93));
#29=EDGE_LOOP('',(#94,#95,#96));
#30=EDGE_LOOP('',(#97,#98));
#31=EDGE_LOOP('',(#99,#100,#101,#102,#103,#104,#105));
#32=EDGE_LOOP('',(#106));
#33=EDGE_LOOP('',(#107));
#34=EDGE_LOOP('',(#108,#109));
#35=EDGE_LOOP('',(#110,#111,#112,#113,#114,#115));
#36=EDGE_LOOP('',(#116,#117,#118,#119,#120,#121));
#37=LINE('',#215,#40);
#38=LINE('',#241,#41);
#39=LINE('',#246,#42);
#40=VECTOR('',#170,1.68585947771853);
#41=VECTOR('',#201,1.68534952733165);
#42=VECTOR('',#208,1.585);
#43=CIRCLE('',#145,1.585);
#44=CIRCLE('',#146,1.78671895543706);
#45=CIRCLE('',#147,1.78671895543706);
#46=CIRCLE('',#148,1.585);
#47=CIRCLE('',#150,3.72360376517159);
#48=CIRCLE('',#151,3.72360376517159);
#49=CIRCLE('',#152,3.72360376517159);
#50=CIRCLE('',#154,4.485);
#51=CIRCLE('',#155,4.485);
#52=CIRCLE('',#156,3.72360376517159);
#53=CIRCLE('',#158,1.7856990546633);
#54=CIRCLE('',#159,1.7856990546633);
#55=CIRCLE('',#161,1.585);
#56=CIRCLE('',#162,1.585);
#57=VERTEX_POINT('',#211);
#58=VERTEX_POINT('',#212);
#59=VERTEX_POINT('',#214);
#60=VERTEX_POINT('',#216);
#61=VERTEX_POINT('',#221);
#62=VERTEX_POINT('',#222);
#63=VERTEX_POINT('',#224);
#64=VERTEX_POINT('',#228);
#65=VERTEX_POINT('',#230);
#66=VERTEX_POINT('',#232);
#67=VERTEX_POINT('',#235);
#68=VERTEX_POINT('',#236);
#69=VERTEX_POINT('',#240);
#70=VERTEX_POINT('',#242);
#71=EDGE_CURVE('',#57,#58,#43,.T.);
#72=EDGE_CURVE('',#58,#59,#37,.T.);
#73=EDGE_CURVE('',#60,#59,#44,.T.);
#74=EDGE_CURVE('',#59,#60,#45,.T.);
#75=EDGE_CURVE('',#58,#57,#46,.T.);
#76=EDGE_CURVE('',#61,#62,#47,.T.);
#77=EDGE_CURVE('',#63,#61,#48,.T.);
#78=EDGE_CURVE('',#62,#63,#49,.T.);
#79=EDGE_CURVE('',#64,#62,#50,.T.);
#80=EDGE_CURVE('',#63,#65,#51,.T.);
#81=EDGE_CURVE('',#66,#66,#52,.T.);
#82=EDGE_CURVE('',#67,#68,#53,.T.);
#83=EDGE_CURVE('',#68,#67,#54,.T.);
#84=EDGE_CURVE('',#68,#69,#38,.T.);
#85=EDGE_CURVE('',#70,#69,#55,.T.);
#86=EDGE_CURVE('',#69,#70,#56,.T.);
#87=EDGE_CURVE('',#69,#58,#39,.T.);
#88=ORIENTED_EDGE('',*,*,#71,.T.);
#89=ORIENTED_EDGE('',*,*,#72,.T.);
#90=ORIENTED_EDGE('',*,*,#73,.F.);
#91=ORIENTED_EDGE('',*,*,#74,.F.);
#92=ORIENTED_EDGE('',*,*,#72,.F.);
#93=ORIENTED_EDGE('',*,*,#75,.T.);
#94=ORIENTED_EDGE('',*,*,#76,.F.);
#95=ORIENTED_EDGE('',*,*,#77,.F.);
#96=ORIENTED_EDGE('',*,*,#78,.F.);
#97=ORIENTED_EDGE('',*,*,#73,.T.);
#98=ORIENTED_EDGE('',*,*,#74,.T.);
#99=ORIENTED_EDGE('',*,*,#76,.T.);
#100=ORIENTED_EDGE('',*,*,#79,.F.);
#101=ORIENTED_EDGE('',*,*,#79,.T.);
#102=ORIENTED_EDGE('',*,*,#78,.T.);
#103=ORIENTED_EDGE('',*,*,#80,.T.);
#104=ORIENTED_EDGE('',*,*,#80,.F.);
#105=ORIENTED_EDGE('',*,*,#77,.T.);
#106=ORIENTED_EDGE('',*,*,#81,.F.);
#107=ORIENTED_EDGE('',*,*,#81,.T.);
#108=ORIENTED_EDGE('',*,*,#82,.F.);
#109=ORIENTED_EDGE('',*,*,#83,.F.);
#110=ORIENTED_EDGE('',*,*,#82,.T.);
#111=ORIENTED_EDGE('',*,*,#84,.T.);
#112=ORIENTED_EDGE('',*,*,#85,.F.);
#113=ORIENTED_EDGE('',*,*,#86,.F.);
#114=ORIENTED_EDGE('',*,*,#84,.F.);
#115=ORIENTED_EDGE('',*,*,#83,.T.);
#116=ORIENTED_EDGE('',*,*,#85,.T.);
#117=ORIENTED_EDGE('',*,*,#87,.T.);
#118=ORIENTED_EDGE('',*,*,#71,.F.);
#119=ORIENTED_EDGE('',*,*,#75,.F.);
#120=ORIENTED_EDGE('',*,*,#87,.F.);
#121=ORIENTED_EDGE('',*,*,#86,.T.);
#122=CONICAL_SURFACE('',#144,1.68585947771853,0.789677137348382);
#123=CONICAL_SURFACE('',#160,1.68534952733165,0.780615755591382);
#124=ADVANCED_FACE('',(#22),#122,.F.);
#125=ADVANCED_FACE('',(#23,#17),#20,.T.);
#126=ADVANCED_FACE('',(#24,#18),#16,.T.);
#127=ADVANCED_FACE('',(#25,#19),#21,.T.);
#128=ADVANCED_FACE('',(#26),#123,.F.);
#129=ADVANCED_FACE('',(#27),#15,.F.);
#130=CLOSED_SHELL('',(#124,#125,#126,#127,#128,#129));
#131=DERIVED_UNIT_ELEMENT(#133,1.);
#132=DERIVED_UNIT_ELEMENT(#252,3.);
#133=(
MASS_UNIT()
NAMED_UNIT(*)
SI_UNIT(.KILO.,.GRAM.)
);
#134=DERIVED_UNIT((#131,#132));
#135=MEASURE_REPRESENTATION_ITEM('density measure',
POSITIVE_RATIO_MEASURE(7850.),#134);
#136=PROPERTY_DEFINITION_REPRESENTATION(#141,#138);
#137=PROPERTY_DEFINITION_REPRESENTATION(#142,#139);
#138=REPRESENTATION('material name',(#140),#249);
#139=REPRESENTATION('density',(#135),#249);
#140=DESCRIPTIVE_REPRESENTATION_ITEM('Steel','Steel');
#141=PROPERTY_DEFINITION('material property','material name',#259);
#142=PROPERTY_DEFINITION('material property','density of part',#259);
#143=AXIS2_PLACEMENT_3D('placement',#209,#164,#165);
#144=AXIS2_PLACEMENT_3D('',#210,#166,#167);
#145=AXIS2_PLACEMENT_3D('',#213,#168,#169);
#146=AXIS2_PLACEMENT_3D('',#217,#171,#172);
#147=AXIS2_PLACEMENT_3D('',#218,#173,#174);
#148=AXIS2_PLACEMENT_3D('',#219,#175,#176);
#149=AXIS2_PLACEMENT_3D('',#220,#177,#178);
#150=AXIS2_PLACEMENT_3D('',#223,#179,#180);
#151=AXIS2_PLACEMENT_3D('',#225,#181,#182);
#152=AXIS2_PLACEMENT_3D('',#226,#183,#184);
#153=AXIS2_PLACEMENT_3D('',#227,#185,#186);
#154=AXIS2_PLACEMENT_3D('',#229,#187,#188);
#155=AXIS2_PLACEMENT_3D('',#231,#189,#190);
#156=AXIS2_PLACEMENT_3D('',#233,#191,#192);
#157=AXIS2_PLACEMENT_3D('',#234,#193,#194);
#158=AXIS2_PLACEMENT_3D('',#237,#195,#196);
#159=AXIS2_PLACEMENT_3D('',#238,#197,#198);
#160=AXIS2_PLACEMENT_3D('',#239,#199,#200);
#161=AXIS2_PLACEMENT_3D('',#243,#202,#203);
#162=AXIS2_PLACEMENT_3D('',#244,#204,#205);
#163=AXIS2_PLACEMENT_3D('',#245,#206,#207);
#164=DIRECTION('axis',(0.,0.,1.));
#165=DIRECTION('refdir',(1.,0.,0.));
#166=DIRECTION('center_axis',(0.,1.,0.));
#167=DIRECTION('ref_axis',(0.,0.,-1.));
#168=DIRECTION('center_axis',(0.,-1.,0.));
#169=DIRECTION('ref_axis',(1.,0.,0.));
#170=DIRECTION('',(-8.69653520685135E-17,0.70407462550485,0.710125990032899));
#171=DIRECTION('center_axis',(0.,-1.,0.));
#172=DIRECTION('ref_axis',(1.,0.,0.));
#173=DIRECTION('center_axis',(0.,-1.,0.));
#174=DIRECTION('ref_axis',(1.,0.,0.));
#175=DIRECTION('center_axis',(0.,-1.,0.));
#176=DIRECTION('ref_axis',(1.,0.,0.));
#177=DIRECTION('center_axis',(0.,1.,0.));
#178=DIRECTION('ref_axis',(0.,0.,1.));
#179=DIRECTION('center_axis',(0.,-1.,0.));
#180=DIRECTION('ref_axis',(1.,0.,0.));
#181=DIRECTION('center_axis',(0.,-1.,0.));
#182=DIRECTION('ref_axis',(1.,0.,0.));
#183=DIRECTION('center_axis',(0.,-1.,0.));
#184=DIRECTION('ref_axis',(1.,0.,0.));
#185=DIRECTION('center_axis',(1.,-6.12323399573677E-17,0.));
#186=DIRECTION('ref_axis',(0.,-1.,0.));
#187=DIRECTION('center_axis',(0.,-1.22464679914735E-16,1.));
#188=DIRECTION('ref_axis',(0.,1.,1.22464679914735E-16));
#189=DIRECTION('center_axis',(0.,-1.22464679914735E-16,1.));
#190=DIRECTION('ref_axis',(0.,1.,1.22464679914735E-16));
#191=DIRECTION('center_axis',(0.,-1.,0.));
#192=DIRECTION('ref_axis',(1.,0.,0.));
#193=DIRECTION('center_axis',(0.,-1.,0.));
#194=DIRECTION('ref_axis',(0.,0.,-1.));
#195=DIRECTION('center_axis',(0.,-1.,0.));
#196=DIRECTION('ref_axis',(1.,0.,0.));
#197=DIRECTION('center_axis',(0.,-1.,0.));
#198=DIRECTION('ref_axis',(1.,0.,0.));
#199=DIRECTION('center_axis',(0.,-1.,0.));
#200=DIRECTION('ref_axis',(0.,0.,-1.));
#201=DIRECTION('',(8.618048142135E-17,0.710480355031777,-0.703717034832837));
#202=DIRECTION('center_axis',(0.,-1.,0.));
#203=DIRECTION('ref_axis',(1.,0.,0.));
#204=DIRECTION('center_axis',(0.,-1.,0.));
#205=DIRECTION('ref_axis',(1.,0.,0.));
#206=DIRECTION('center_axis',(0.,-1.,0.));
#207=DIRECTION('ref_axis',(0.,0.,-1.));
#208=DIRECTION('',(0.,1.,0.));
#209=CARTESIAN_POINT('',(0.,0.,0.));
#210=CARTESIAN_POINT('Origin',(0.,2.4,0.));
#211=CARTESIAN_POINT('',(0.,2.3,-1.585));
#212=CARTESIAN_POINT('',(-1.94106517664855E-16,2.3,1.585));
#213=CARTESIAN_POINT('Origin',(0.,2.3,0.));
#214=CARTESIAN_POINT('',(-2.1880996497519E-16,2.5,1.78671895543706));
#215=CARTESIAN_POINT('',(-2.06458241320023E-16,2.4,1.68585947771853));
#216=CARTESIAN_POINT('',(0.,2.5,-1.78671895543706));
#217=CARTESIAN_POINT('Origin',(0.,2.5,0.));
#218=CARTESIAN_POINT('Origin',(0.,2.5,0.));
#219=CARTESIAN_POINT('Origin',(0.,2.3,0.));
#220=CARTESIAN_POINT('Origin',(0.,2.5,-3.72360376517159));
#221=CARTESIAN_POINT('',(0.,2.5,-3.72360376517159));
#222=CARTESIAN_POINT('',(3.72360376517159,2.5,3.06161699786838E-16));
#223=CARTESIAN_POINT('Origin',(0.,2.5,0.));
#224=CARTESIAN_POINT('',(-3.72360376517159,2.5,3.06161699786838E-16));
#225=CARTESIAN_POINT('Origin',(0.,2.5,0.));
#226=CARTESIAN_POINT('Origin',(0.,2.5,0.));
#227=CARTESIAN_POINT('Origin',(0.,0.,0.));
#228=CARTESIAN_POINT('',(4.485,2.74627044708794E-16,3.36321131261922E-32));
#229=CARTESIAN_POINT('Origin',(0.,0.,0.));
#230=CARTESIAN_POINT('',(-4.485,2.74627044708794E-16,3.36321131261922E-32));
#231=CARTESIAN_POINT('Origin',(0.,0.,0.));
#232=CARTESIAN_POINT('',(0.,-2.5,-3.72360376517159));
#233=CARTESIAN_POINT('Origin',(0.,-2.5,0.));
#234=CARTESIAN_POINT('Origin',(0.,-2.5,-1.7856990546633));
#235=CARTESIAN_POINT('',(0.,-2.5,-1.7856990546633));
#236=CARTESIAN_POINT('',(-2.18685063153387E-16,-2.5,1.7856990546633));
#237=CARTESIAN_POINT('Origin',(0.,-2.5,0.));
#238=CARTESIAN_POINT('Origin',(0.,-2.5,0.));
#239=CARTESIAN_POINT('Origin',(0.,-2.39868602822326,0.));
#240=CARTESIAN_POINT('',(-1.94106517664855E-16,-2.29737205644653,1.585));
#241=CARTESIAN_POINT('',(-2.06395790409121E-16,-2.39868602822326,1.68534952733165));
#242=CARTESIAN_POINT('',(0.,-2.29737205644653,-1.585));
#243=CARTESIAN_POINT('Origin',(0.,-2.29737205644653,0.));
#244=CARTESIAN_POINT('Origin',(0.,-2.29737205644653,0.));
#245=CARTESIAN_POINT('Origin',(0.,0.00131397177673437,0.));
#246=CARTESIAN_POINT('',(-1.94106517664855E-16,0.00131397177673437,1.585));
#247=UNCERTAINTY_MEASURE_WITH_UNIT(LENGTH_MEASURE(0.01),#251,
'DISTANCE_ACCURACY_VALUE',
'Maximum model space distance between geometric entities at asserted c
onnectivities');
#248=UNCERTAINTY_MEASURE_WITH_UNIT(LENGTH_MEASURE(0.01),#251,
'DISTANCE_ACCURACY_VALUE',
'Maximum model space distance between geometric entities at asserted c
onnectivities');
#249=(
GEOMETRIC_REPRESENTATION_CONTEXT(3)
GLOBAL_UNCERTAINTY_ASSIGNED_CONTEXT((#247))
GLOBAL_UNIT_ASSIGNED_CONTEXT((#251,#253,#254))
REPRESENTATION_CONTEXT('','3D')
);
#250=(
GEOMETRIC_REPRESENTATION_CONTEXT(3)
GLOBAL_UNCERTAINTY_ASSIGNED_CONTEXT((#248))
GLOBAL_UNIT_ASSIGNED_CONTEXT((#251,#253,#254))
REPRESENTATION_CONTEXT('','3D')
);
#251=(
LENGTH_UNIT()
NAMED_UNIT(*)
SI_UNIT(.MILLI.,.METRE.)
);
#252=(
LENGTH_UNIT()
NAMED_UNIT(*)
SI_UNIT($,.METRE.)
);
#253=(
NAMED_UNIT(*)
PLANE_ANGLE_UNIT()
SI_UNIT($,.RADIAN.)
);
#254=(
NAMED_UNIT(*)
SI_UNIT($,.STERADIAN.)
SOLID_ANGLE_UNIT()
);
#255=SHAPE_DEFINITION_REPRESENTATION(#256,#257);
#256=PRODUCT_DEFINITION_SHAPE('',$,#259);
#257=SHAPE_REPRESENTATION('',(#143),#249);
#258=PRODUCT_DEFINITION_CONTEXT('part definition',#263,'design');
#259=PRODUCT_DEFINITION('(Unsaved)','(Unsaved)',#260,#258);
#260=PRODUCT_DEFINITION_FORMATION('',$,#265);
#261=PRODUCT_RELATED_PRODUCT_CATEGORY('(Unsaved)','(Unsaved)',(#265));
#262=APPLICATION_PROTOCOL_DEFINITION('international standard',
'automotive_design',2009,#263);
#263=APPLICATION_CONTEXT(
'Core Data for Automotive Mechanical Design Process');
#264=PRODUCT_CONTEXT('part definition',#263,'mechanical');
#265=PRODUCT('(Unsaved)','(Unsaved)',$,(#264));
#266=PRESENTATION_STYLE_ASSIGNMENT((#267));
#267=SURFACE_STYLE_USAGE(.BOTH.,#268);
#268=SURFACE_SIDE_STYLE('',(#269));
#269=SURFACE_STYLE_FILL_AREA(#270);
#270=FILL_AREA_STYLE('Steel - Satin',(#271));
#271=FILL_AREA_STYLE_COLOUR('Steel - Satin',#272);
#272=COLOUR_RGB('Steel - Satin',0.627450980392157,0.627450980392157,0.627450980392157);
ENDSEC;
END-ISO-10303-21;
