ISO-10303-21;
HEADER;
FILE_DESCRIPTION (( 'STEP AP214' ),
    '1' );
FILE_NAME ('insert_metal_poulie.STEP',
    '2019-01-02T10:25:43',
    ( '' ),
    ( '' ),
    'SwSTEP 2.0',
    'SolidWorks 2018',
    '' );
FILE_SCHEMA (( 'AUTOMOTIVE_DESIGN' ));
ENDSEC;

DATA;
#1 = ORIENTED_EDGE ( 'NONE', *, *, #188, .F. ) ;
#2 = EDGE_LOOP ( 'NONE', ( #128, #21, #64, #256 ) ) ;
#3 = EDGE_CURVE ( 'NONE', #97, #124, #90, .T. ) ;
#4 = CARTESIAN_POINT ( 'NONE',  ( 0.0000000000000000000, 0.0000000000000000000, 6.799999999999999822 ) ) ;
#5 = CIRCLE ( 'NONE', #163, 3.064999999999999947 ) ;
#6 = CARTESIAN_POINT ( 'NONE',  ( 0.0000000000000000000, 0.0000000000000000000, 6.799999999999999822 ) ) ;
#7 = LINE ( 'NONE', #15, #289 ) ;
#8 = FACE_OUTER_BOUND ( 'NONE', #266, .T. ) ;
#9 = FILL_AREA_STYLE ('',( #107 ) ) ;
#10 = DIRECTION ( 'NONE',  ( 1.000000000000000000, 0.0000000000000000000, 0.0000000000000000000 ) ) ;
#11 = FACE_BOUND ( 'NONE', #148, .T. ) ;
#12 = ORIENTED_EDGE ( 'NONE', *, *, #46, .F. ) ;
#13 = EDGE_CURVE ( 'NONE', #287, #248, #155, .T. ) ;
#14 = DIRECTION ( 'NONE',  ( 0.0000000000000000000, -0.0000000000000000000, 1.000000000000000000 ) ) ;
#15 = CARTESIAN_POINT ( 'NONE',  ( -1.113204832903630370, -1.100000000000000089, 6.799999999999999822 ) ) ;
#16 = EDGE_CURVE ( 'NONE', #170, #41, #126, .T. ) ;
#17 = CARTESIAN_POINT ( 'NONE',  ( 0.7500000000000002220, -2.599999999999999645, 6.799999999999999822 ) ) ;
#18 = CARTESIAN_POINT ( 'NONE',  ( -1.623029574591911439, -2.600000000000000089, 0.0000000000000000000 ) ) ;
#19 = CARTESIAN_POINT ( 'NONE',  ( 0.7500000000000002220, -2.599999999999999645, 6.799999999999999822 ) ) ;
#20 = CIRCLE ( 'NONE', #313, 1.564999999999999947 ) ;
#21 = ORIENTED_EDGE ( 'NONE', *, *, #13, .F. ) ;
#22 = PRESENTATION_STYLE_ASSIGNMENT (( #316 ) ) ;
#23 = AXIS2_PLACEMENT_3D ( 'NONE', #328, #211, #330 ) ;
#24 = DIRECTION ( 'NONE',  ( -0.0000000000000000000, -0.0000000000000000000, -1.000000000000000000 ) ) ;
#25 = VECTOR ( 'NONE', #169, 1000.000000000000000 ) ;
#26 = ADVANCED_FACE ( 'NONE', ( #145 ), #267, .F. ) ;
#27 = ORIENTED_EDGE ( 'NONE', *, *, #121, .T. ) ;
#28 = DIRECTION ( 'NONE',  ( -1.000000000000000000, 2.891205793294677833E-16, 0.0000000000000000000 ) ) ;
#29 = ORIENTED_EDGE ( 'NONE', *, *, #149, .T. ) ;
#30 = VERTEX_POINT ( 'NONE', #334 ) ;
#31 = EDGE_CURVE ( 'NONE', #97, #202, #262, .T. ) ;
#32 = LINE ( 'NONE', #314, #134 ) ;
#33 = FILL_AREA_STYLE_COLOUR ( '', #42 ) ;
#34 = FACE_BOUND ( 'NONE', #186, .T. ) ;
#35 = CARTESIAN_POINT ( 'NONE',  ( -0.7500000000000000000, -3.349999999999999645, 6.799999999999999822 ) ) ;
#36 = CLOSED_SHELL ( 'NONE', ( #51, #166, #342, #26, #308, #80, #282, #143, #174, #273 ) ) ;
#37 = CARTESIAN_POINT ( 'NONE',  ( 0.7500000000000002220, -2.599999999999999645, 0.0000000000000000000 ) ) ;
#38 = ORIENTED_EDGE ( 'NONE', *, *, #223, .F. ) ;
#39 = DIRECTION ( 'NONE',  ( 1.000000000000000000, 0.0000000000000000000, -0.0000000000000000000 ) ) ;
#40 = CARTESIAN_POINT ( 'NONE',  ( 1.113204832903630370, -1.100000000000000089, 6.799999999999999822 ) ) ;
#41 = VERTEX_POINT ( 'NONE', #194 ) ;
#42 = COLOUR_RGB ( '',0.7529411764705882248, 0.7529411764705882248, 0.7529411764705882248 ) ;
#43 = DIRECTION ( 'NONE',  ( -2.891205793294679312E-16, -1.000000000000000000, -0.0000000000000000000 ) ) ;
#44 = ADVANCED_BREP_SHAPE_REPRESENTATION ( 'insert_metal_poulie', ( #306, #230 ), #220 ) ;
#45 = VERTEX_POINT ( 'NONE', #19 ) ;
#46 = EDGE_CURVE ( 'NONE', #202, #170, #81, .T. ) ;
#47 = VERTEX_POINT ( 'NONE', #40 ) ;
#48 = LINE ( 'NONE', #147, #84 ) ;
#49 = EDGE_CURVE ( 'NONE', #124, #170, #276, .T. ) ;
#50 = CARTESIAN_POINT ( 'NONE',  ( -0.7500000000000000000, -3.349999999999999645, 0.0000000000000000000 ) ) ;
#51 = ADVANCED_FACE ( 'NONE', ( #247, #34 ), #241, .T. ) ;
#52 = VERTEX_POINT ( 'NONE', #18 ) ;
#53 = SURFACE_STYLE_FILL_AREA ( #318 ) ;
#54 = VECTOR ( 'NONE', #114, 1000.000000000000000 ) ;
#55 = LINE ( 'NONE', #331, #196 ) ;
#56 = ORIENTED_EDGE ( 'NONE', *, *, #307, .T. ) ;
#57 = AXIS2_PLACEMENT_3D ( 'NONE', #165, #93, #297 ) ;
#58 =( NAMED_UNIT ( * ) PLANE_ANGLE_UNIT ( ) SI_UNIT ( $, .RADIAN. ) );
#59 = DIRECTION ( 'NONE',  ( 2.891205793294678819E-16, 1.000000000000000000, 0.0000000000000000000 ) ) ;
#60 = DIRECTION ( 'NONE',  ( 0.0000000000000000000, 0.0000000000000000000, 1.000000000000000000 ) ) ;
#61 = ORIENTED_EDGE ( 'NONE', *, *, #16, .T. ) ;
#62 = LINE ( 'NONE', #78, #185 ) ;
#63 = CARTESIAN_POINT ( 'NONE',  ( 1.623029574591911439, -2.600000000000000089, 6.799999999999999822 ) ) ;
#64 = ORIENTED_EDGE ( 'NONE', *, *, #281, .F. ) ;
#65 = EDGE_CURVE ( 'NONE', #202, #195, #112, .T. ) ;
#66 = VECTOR ( 'NONE', #138, 1000.000000000000000 ) ;
#67 = DIRECTION ( 'NONE',  ( 1.000000000000000000, -0.0000000000000000000, -0.0000000000000000000 ) ) ;
#68 = UNCERTAINTY_MEASURE_WITH_UNIT (LENGTH_MEASURE( 1.000000000000000082E-05 ), #179, 'distance_accuracy_value', 'NONE');
#69 = PRODUCT ( 'insert_metal_poulie', 'insert_metal_poulie', '', ( #111 ) ) ;
#70 = CARTESIAN_POINT ( 'NONE',  ( -0.7499999999999997780, -2.600000000000000089, 6.799999999999999822 ) ) ;
#71 = ORIENTED_EDGE ( 'NONE', *, *, #86, .F. ) ;
#72 = FACE_OUTER_BOUND ( 'NONE', #235, .T. ) ;
#73 = DIRECTION ( 'NONE',  ( -0.0000000000000000000, -0.0000000000000000000, -1.000000000000000000 ) ) ;
#74 = VECTOR ( 'NONE', #215, 1000.000000000000000 ) ;
#75 = PRODUCT_DEFINITION_FORMATION_WITH_SPECIFIED_SOURCE ( 'ANY', '', #69, .NOT_KNOWN. ) ;
#76 = ORIENTED_EDGE ( 'NONE', *, *, #3, .F. ) ;
#77 = VECTOR ( 'NONE', #245, 1000.000000000000000 ) ;
#78 = CARTESIAN_POINT ( 'NONE',  ( 0.7500000000000002220, -2.599999999999999645, 6.799999999999999822 ) ) ;
#79 = DIRECTION ( 'NONE',  ( -0.0000000000000000000, -0.0000000000000000000, -1.000000000000000000 ) ) ;
#80 = ADVANCED_FACE ( 'NONE', ( #252 ), #271, .F. ) ;
#81 = LINE ( 'NONE', #117, #94 ) ;
#82 = EDGE_CURVE ( 'NONE', #164, #98, #20, .T. ) ;
#83 = DIRECTION ( 'NONE',  ( 1.000000000000000000, 0.0000000000000000000, 0.0000000000000000000 ) ) ;
#84 = VECTOR ( 'NONE', #198, 1000.000000000000000 ) ;
#85 = CARTESIAN_POINT ( 'NONE',  ( -1.623029574591911439, -2.600000000000000089, 6.799999999999999822 ) ) ;
#86 = EDGE_CURVE ( 'NONE', #30, #98, #7, .T. ) ;
#87 = DIRECTION ( 'NONE',  ( -0.0000000000000000000, -0.0000000000000000000, -1.000000000000000000 ) ) ;
#88 = EDGE_LOOP ( 'NONE', ( #61, #312, #258, #109 ) ) ;
#89 = CARTESIAN_POINT ( 'NONE',  ( -1.623029574591911439, -2.600000000000000089, 0.0000000000000000000 ) ) ;
#90 = LINE ( 'NONE', #270, #137 ) ;
#91 = ORIENTED_EDGE ( 'NONE', *, *, #236, .T. ) ;
#92 = PLANE ( 'NONE',  #277 ) ;
#93 = DIRECTION ( 'NONE',  ( 0.0000000000000000000, 1.000000000000000000, -0.0000000000000000000 ) ) ;
#94 = VECTOR ( 'NONE', #246, 1000.000000000000000 ) ;
#95 = DIRECTION ( 'NONE',  ( 2.891205793294677833E-16, 1.000000000000000000, -0.0000000000000000000 ) ) ;
#96 = CARTESIAN_POINT ( 'NONE',  ( -0.7500000000000000000, -3.349999999999999645, 6.799999999999999822 ) ) ;
#97 = VERTEX_POINT ( 'NONE', #70 ) ;
#98 = VERTEX_POINT ( 'NONE', #190 ) ;
#99 = ORIENTED_EDGE ( 'NONE', *, *, #125, .T. ) ;
#100 = CARTESIAN_POINT ( 'NONE',  ( 0.0000000000000000000, 0.0000000000000000000, 6.799999999999999822 ) ) ;
#101 = AXIS2_PLACEMENT_3D ( 'NONE', #225, #28, #226 ) ;
#102 = ORIENTED_EDGE ( 'NONE', *, *, #65, .T. ) ;
#103 = ORIENTED_EDGE ( 'NONE', *, *, #149, .F. ) ;
#104 = ORIENTED_EDGE ( 'NONE', *, *, #293, .T. ) ;
#105 = FACE_OUTER_BOUND ( 'NONE', #197, .T. ) ;
#106 = STYLED_ITEM ( 'NONE', ( #192 ), #306 ) ;
#107 = FILL_AREA_STYLE_COLOUR ( '', #127 ) ;
#108 = DIRECTION ( 'NONE',  ( 1.000000000000000000, 0.0000000000000000000, 0.0000000000000000000 ) ) ;
#109 = ORIENTED_EDGE ( 'NONE', *, *, #46, .T. ) ;
#110 = DIRECTION ( 'NONE',  ( -1.000000000000000000, 0.0000000000000000000, 0.0000000000000000000 ) ) ;
#111 = PRODUCT_CONTEXT ( 'NONE', #237, 'mechanical' ) ;
#112 = LINE ( 'NONE', #141, #221 ) ;
#113 = SURFACE_STYLE_USAGE ( .BOTH. , #265 ) ;
#114 = DIRECTION ( 'NONE',  ( 1.000000000000000000, -0.0000000000000000000, -0.0000000000000000000 ) ) ;
#115 = ORIENTED_EDGE ( 'NONE', *, *, #236, .F. ) ;
#116 = AXIS2_PLACEMENT_3D ( 'NONE', #100, #79, #172 ) ;
#117 = CARTESIAN_POINT ( 'NONE',  ( -0.7500000000000000000, -3.349999999999999645, 6.799999999999999822 ) ) ;
#118 = DIRECTION ( 'NONE',  ( 1.000000000000000000, 0.0000000000000000000, 0.0000000000000000000 ) ) ;
#119 = DIRECTION ( 'NONE',  ( 4.967539263454179714E-16, 1.000000000000000000, -0.0000000000000000000 ) ) ;
#120 = EDGE_LOOP ( 'NONE', ( #153, #1, #171, #175 ) ) ;
#121 = EDGE_CURVE ( 'NONE', #195, #45, #214, .T. ) ;
#122 = DIRECTION ( 'NONE',  ( 0.0000000000000000000, 0.0000000000000000000, 1.000000000000000000 ) ) ;
#123 = VECTOR ( 'NONE', #213, 1000.000000000000000 ) ;
#124 = VERTEX_POINT ( 'NONE', #303 ) ;
#125 = EDGE_CURVE ( 'NONE', #30, #47, #55, .T. ) ;
#126 = LINE ( 'NONE', #299, #54 ) ;
#127 = COLOUR_RGB ( '',0.7529411764705882248, 0.7529411764705882248, 0.7529411764705882248 ) ;
#128 = ORIENTED_EDGE ( 'NONE', *, *, #261, .T. ) ;
#129 = PLANE ( 'NONE',  #101 ) ;
#130 = PRESENTATION_LAYER_ASSIGNMENT (  '', '', ( #298 ) ) ;
#131 = LINE ( 'NONE', #85, #66 ) ;
#132 = APPLICATION_PROTOCOL_DEFINITION ( 'draft international standard', 'automotive_design', 1998, #232 ) ;
#133 = ORIENTED_EDGE ( 'NONE', *, *, #31, .F. ) ;
#134 = VECTOR ( 'NONE', #154, 1000.000000000000000 ) ;
#135 =( NAMED_UNIT ( * ) PLANE_ANGLE_UNIT ( ) SI_UNIT ( $, .RADIAN. ) );
#136 = EDGE_CURVE ( 'NONE', #41, #219, #324, .T. ) ;
#137 = VECTOR ( 'NONE', #187, 1000.000000000000000 ) ;
#138 = DIRECTION ( 'NONE',  ( 1.000000000000000000, 0.0000000000000000000, 0.0000000000000000000 ) ) ;
#139 = LINE ( 'NONE', #144, #77 ) ;
#140 = PLANE ( 'NONE',  #280 ) ;
#141 = CARTESIAN_POINT ( 'NONE',  ( 0.7500000000000000000, -3.349999999999999645, 6.799999999999999822 ) ) ;
#142 = MECHANICAL_DESIGN_GEOMETRIC_PRESENTATION_REPRESENTATION (  '', ( #106 ), #178 ) ;
#143 = ADVANCED_FACE ( 'NONE', ( #255 ), #272, .F. ) ;
#144 = CARTESIAN_POINT ( 'NONE',  ( -1.623029574591911439, -2.600000000000000089, 6.799999999999999822 ) ) ;
#145 = FACE_OUTER_BOUND ( 'NONE', #315, .T. ) ;
#146 = CIRCLE ( 'NONE', #173, 1.564999999999999947 ) ;
#147 = CARTESIAN_POINT ( 'NONE',  ( -1.113204832903630370, -1.100000000000000089, 0.0000000000000000000 ) ) ;
#148 = EDGE_LOOP ( 'NONE', ( #294, #209 ) ) ;
#149 = EDGE_CURVE ( 'NONE', #335, #52, #139, .T. ) ;
#150 = PLANE ( 'NONE',  #183 ) ;
#151 = LINE ( 'NONE', #17, #74 ) ;
#152 = AXIS2_PLACEMENT_3D ( 'NONE', #184, #208, #10 ) ;
#153 = ORIENTED_EDGE ( 'NONE', *, *, #82, .F. ) ;
#154 = DIRECTION ( 'NONE',  ( -0.0000000000000000000, -0.0000000000000000000, -1.000000000000000000 ) ) ;
#155 = LINE ( 'NONE', #296, #123 ) ;
#156 = ORIENTED_EDGE ( 'NONE', *, *, #302, .T. ) ;
#157 = MECHANICAL_DESIGN_GEOMETRIC_PRESENTATION_REPRESENTATION (  '', ( #298 ), #210 ) ;
#158 = DIRECTION ( 'NONE',  ( 1.000000000000000000, 0.0000000000000000000, 0.0000000000000000000 ) ) ;
#159 = CARTESIAN_POINT ( 'NONE',  ( -1.623029574591911439, -2.600000000000000089, 6.799999999999999822 ) ) ;
#160 = ORIENTED_EDGE ( 'NONE', *, *, #136, .F. ) ;
#161 = ORIENTED_EDGE ( 'NONE', *, *, #13, .T. ) ;
#162 = DIRECTION ( 'NONE',  ( 0.0000000000000000000, 1.000000000000000000, 0.0000000000000000000 ) ) ;
#163 = AXIS2_PLACEMENT_3D ( 'NONE', #193, #122, #203 ) ;
#164 = VERTEX_POINT ( 'NONE', #168 ) ;
#165 = CARTESIAN_POINT ( 'NONE',  ( 0.7500000000000000000, -3.349999999999999645, 6.799999999999999822 ) ) ;
#166 = ADVANCED_FACE ( 'NONE', ( #201, #11 ), #92, .F. ) ;
#167 = EDGE_CURVE ( 'NONE', #45, #219, #62, .T. ) ;
#168 = CARTESIAN_POINT ( 'NONE',  ( 1.113204832903630370, -1.100000000000000089, 0.0000000000000000000 ) ) ;
#169 = DIRECTION ( 'NONE',  ( 1.000000000000000000, -4.967539263454179714E-16, 0.0000000000000000000 ) ) ;
#170 = VERTEX_POINT ( 'NONE', #50 ) ;
#171 = ORIENTED_EDGE ( 'NONE', *, *, #327, .T. ) ;
#172 = DIRECTION ( 'NONE',  ( -1.000000000000000000, 0.0000000000000000000, 0.0000000000000000000 ) ) ;
#173 = AXIS2_PLACEMENT_3D ( 'NONE', #4, #257, #108 ) ;
#174 = ADVANCED_FACE ( 'NONE', ( #264 ), #240, .F. ) ;
#175 = ORIENTED_EDGE ( 'NONE', *, *, #86, .T. ) ;
#176 = SHAPE_DEFINITION_REPRESENTATION ( #222, #44 ) ;
#177 = ORIENTED_EDGE ( 'NONE', *, *, #31, .T. ) ;
#178 =( GEOMETRIC_REPRESENTATION_CONTEXT ( 3 ) GLOBAL_UNCERTAINTY_ASSIGNED_CONTEXT ( ( #311 ) ) GLOBAL_UNIT_ASSIGNED_CONTEXT ( ( #290, #135, #181 ) ) REPRESENTATION_CONTEXT ( 'NONE', 'WORKASPACE' ) );
#179 =( LENGTH_UNIT ( ) NAMED_UNIT ( * ) SI_UNIT ( .MILLI., .METRE. ) );
#180 = ORIENTED_EDGE ( 'NONE', *, *, #281, .T. ) ;
#181 =( NAMED_UNIT ( * ) SI_UNIT ( $, .STERADIAN. ) SOLID_ANGLE_UNIT ( ) );
#182 = ORIENTED_EDGE ( 'NONE', *, *, #327, .F. ) ;
#183 = AXIS2_PLACEMENT_3D ( 'NONE', #200, #249, #207 ) ;
#184 = CARTESIAN_POINT ( 'NONE',  ( 0.0000000000000000000, 0.0000000000000000000, 6.799999999999999822 ) ) ;
#185 = VECTOR ( 'NONE', #24, 1000.000000000000000 ) ;
#186 = EDGE_LOOP ( 'NONE', ( #304, #182 ) ) ;
#187 = DIRECTION ( 'NONE',  ( -0.0000000000000000000, -0.0000000000000000000, -1.000000000000000000 ) ) ;
#188 = EDGE_CURVE ( 'NONE', #47, #164, #32, .T. ) ;
#189 = CARTESIAN_POINT ( 'NONE',  ( 0.7500000000000002220, -2.599999999999999645, 6.799999999999999822 ) ) ;
#190 = CARTESIAN_POINT ( 'NONE',  ( -1.113204832903630370, -1.100000000000000089, 0.0000000000000000000 ) ) ;
#191 = ORIENTED_EDGE ( 'NONE', *, *, #269, .T. ) ;
#192 = PRESENTATION_STYLE_ASSIGNMENT (( #113 ) ) ;
#193 = CARTESIAN_POINT ( 'NONE',  ( 0.0000000000000000000, 0.0000000000000000000, 0.0000000000000000000 ) ) ;
#194 = CARTESIAN_POINT ( 'NONE',  ( 0.7500000000000000000, -3.349999999999999645, 0.0000000000000000000 ) ) ;
#195 = VERTEX_POINT ( 'NONE', #227 ) ;
#196 = VECTOR ( 'NONE', #333, 1000.000000000000000 ) ;
#197 = EDGE_LOOP ( 'NONE', ( #38, #71, #99, #323 ) ) ;
#198 = DIRECTION ( 'NONE',  ( 1.000000000000000000, 0.0000000000000000000, 0.0000000000000000000 ) ) ;
#199 = PRESENTATION_LAYER_ASSIGNMENT (  '', '', ( #106 ) ) ;
#200 = CARTESIAN_POINT ( 'NONE',  ( -1.113204832903630370, -1.100000000000000089, 6.799999999999999822 ) ) ;
#201 = FACE_OUTER_BOUND ( 'NONE', #229, .T. ) ;
#202 = VERTEX_POINT ( 'NONE', #286 ) ;
#203 = DIRECTION ( 'NONE',  ( 1.000000000000000000, 0.0000000000000000000, 0.0000000000000000000 ) ) ;
#204 = VECTOR ( 'NONE', #300, 1000.000000000000000 ) ;
#205 = FACE_OUTER_BOUND ( 'NONE', #250, .T. ) ;
#206 = DIRECTION ( 'NONE',  ( 1.000000000000000000, -2.891205793294678819E-16, 0.0000000000000000000 ) ) ;
#207 = DIRECTION ( 'NONE',  ( 0.0000000000000000000, -0.0000000000000000000, 1.000000000000000000 ) ) ;
#208 = DIRECTION ( 'NONE',  ( 0.0000000000000000000, 0.0000000000000000000, 1.000000000000000000 ) ) ;
#209 = ORIENTED_EDGE ( 'NONE', *, *, #223, .T. ) ;
#210 =( GEOMETRIC_REPRESENTATION_CONTEXT ( 3 ) GLOBAL_UNCERTAINTY_ASSIGNED_CONTEXT ( ( #212 ) ) GLOBAL_UNIT_ASSIGNED_CONTEXT ( ( #288, #260, #233 ) ) REPRESENTATION_CONTEXT ( 'NONE', 'WORKASPACE' ) );
#211 = DIRECTION ( 'NONE',  ( 0.0000000000000000000, 0.0000000000000000000, 1.000000000000000000 ) ) ;
#212 = UNCERTAINTY_MEASURE_WITH_UNIT (LENGTH_MEASURE( 1.000000000000000082E-05 ), #288, 'distance_accuracy_value', 'NONE');
#213 = DIRECTION ( 'NONE',  ( -0.0000000000000000000, -0.0000000000000000000, -1.000000000000000000 ) ) ;
#214 = LINE ( 'NONE', #274, #285 ) ;
#215 = DIRECTION ( 'NONE',  ( 1.000000000000000000, -4.967539263454179714E-16, 0.0000000000000000000 ) ) ;
#216 = CARTESIAN_POINT ( 'NONE',  ( 0.0000000000000000000, 0.0000000000000000000, 0.0000000000000000000 ) ) ;
#217 = CARTESIAN_POINT ( 'NONE',  ( -0.7500000000000000000, -3.349999999999999645, 0.0000000000000000000 ) ) ;
#218 = ORIENTED_EDGE ( 'NONE', *, *, #3, .T. ) ;
#219 = VERTEX_POINT ( 'NONE', #254 ) ;
#220 =( GEOMETRIC_REPRESENTATION_CONTEXT ( 3 ) GLOBAL_UNCERTAINTY_ASSIGNED_CONTEXT ( ( #68 ) ) GLOBAL_UNIT_ASSIGNED_CONTEXT ( ( #179, #58, #321 ) ) REPRESENTATION_CONTEXT ( 'NONE', 'WORKASPACE' ) );
#221 = VECTOR ( 'NONE', #67, 1000.000000000000000 ) ;
#222 = PRODUCT_DEFINITION_SHAPE ( 'NONE', 'NONE',  #284 ) ;
#223 = EDGE_CURVE ( 'NONE', #98, #164, #48, .T. ) ;
#224 = ORIENTED_EDGE ( 'NONE', *, *, #307, .F. ) ;
#225 = CARTESIAN_POINT ( 'NONE',  ( 0.7500000000000002220, -2.599999999999999645, 6.799999999999999822 ) ) ;
#226 = DIRECTION ( 'NONE',  ( -2.891205793294677833E-16, -1.000000000000000000, 0.0000000000000000000 ) ) ;
#227 = CARTESIAN_POINT ( 'NONE',  ( 0.7500000000000000000, -3.349999999999999645, 6.799999999999999822 ) ) ;
#228 = ORIENTED_EDGE ( 'NONE', *, *, #16, .F. ) ;
#229 = EDGE_LOOP ( 'NONE', ( #295, #309, #160, #228, #305, #301 ) ) ;
#230 = AXIS2_PLACEMENT_3D ( 'NONE', #291, #60, #83 ) ;
#231 = LINE ( 'NONE', #37, #25 ) ;
#232 = APPLICATION_CONTEXT ( 'automotive_design' ) ;
#233 =( NAMED_UNIT ( * ) SI_UNIT ( $, .STERADIAN. ) SOLID_ANGLE_UNIT ( ) );
#234 = SURFACE_SIDE_STYLE ('',( #336 ) ) ;
#235 = EDGE_LOOP ( 'NONE', ( #292, #337, #319, #104 ) ) ;
#236 = EDGE_CURVE ( 'NONE', #287, #335, #283, .T. ) ;
#237 = APPLICATION_CONTEXT ( 'automotive_design' ) ;
#238 = DIRECTION ( 'NONE',  ( -0.0000000000000000000, -0.0000000000000000000, -1.000000000000000000 ) ) ;
#239 = CARTESIAN_POINT ( 'NONE',  ( 1.623029574591911439, -2.600000000000000089, 0.0000000000000000000 ) ) ;
#240 = CYLINDRICAL_SURFACE ( 'NONE', #116, 1.564999999999999947 ) ;
#241 = PLANE ( 'NONE',  #23 ) ;
#242 = CARTESIAN_POINT ( 'NONE',  ( 0.7500000000000002220, -2.599999999999999645, 0.0000000000000000000 ) ) ;
#243 = CYLINDRICAL_SURFACE ( 'NONE', #338, 3.064999999999999947 ) ;
#244 = DIRECTION ( 'NONE',  ( 0.0000000000000000000, 0.0000000000000000000, 1.000000000000000000 ) ) ;
#245 = DIRECTION ( 'NONE',  ( -0.0000000000000000000, -0.0000000000000000000, -1.000000000000000000 ) ) ;
#246 = DIRECTION ( 'NONE',  ( -0.0000000000000000000, -0.0000000000000000000, -1.000000000000000000 ) ) ;
#247 = FACE_OUTER_BOUND ( 'NONE', #253, .T. ) ;
#248 = VERTEX_POINT ( 'NONE', #239 ) ;
#249 = DIRECTION ( 'NONE',  ( 0.0000000000000000000, 1.000000000000000000, 0.0000000000000000000 ) ) ;
#250 = EDGE_LOOP ( 'NONE', ( #191, #103, #115, #161 ) ) ;
#251 = AXIS2_PLACEMENT_3D ( 'NONE', #189, #119, #329 ) ;
#252 = FACE_OUTER_BOUND ( 'NONE', #88, .T. ) ;
#253 = EDGE_LOOP ( 'NONE', ( #91, #56, #177, #102, #27, #180 ) ) ;
#254 = CARTESIAN_POINT ( 'NONE',  ( 0.7500000000000002220, -2.599999999999999645, 0.0000000000000000000 ) ) ;
#255 = FACE_OUTER_BOUND ( 'NONE', #2, .T. ) ;
#256 = ORIENTED_EDGE ( 'NONE', *, *, #167, .T. ) ;
#257 = DIRECTION ( 'NONE',  ( 0.0000000000000000000, 0.0000000000000000000, 1.000000000000000000 ) ) ;
#258 = ORIENTED_EDGE ( 'NONE', *, *, #65, .F. ) ;
#259 = VECTOR ( 'NONE', #238, 1000.000000000000000 ) ;
#260 =( NAMED_UNIT ( * ) PLANE_ANGLE_UNIT ( ) SI_UNIT ( $, .RADIAN. ) );
#261 = EDGE_CURVE ( 'NONE', #219, #248, #231, .T. ) ;
#262 = LINE ( 'NONE', #96, #322 ) ;
#263 = APPLICATION_PROTOCOL_DEFINITION ( 'draft international standard', 'automotive_design', 1998, #237 ) ;
#264 = FACE_OUTER_BOUND ( 'NONE', #120, .T. ) ;
#265 = SURFACE_SIDE_STYLE ('',( #53 ) ) ;
#266 = EDGE_LOOP ( 'NONE', ( #325, #12, #133, #218 ) ) ;
#267 = PLANE ( 'NONE',  #340 ) ;
#268 = DIRECTION ( 'NONE',  ( 2.891205793294677833E-16, 1.000000000000000000, -0.0000000000000000000 ) ) ;
#269 = EDGE_CURVE ( 'NONE', #248, #52, #5, .T. ) ;
#270 = CARTESIAN_POINT ( 'NONE',  ( -0.7499999999999997780, -2.600000000000000089, 6.799999999999999822 ) ) ;
#271 = PLANE ( 'NONE',  #57 ) ;
#272 = PLANE ( 'NONE',  #251 ) ;
#273 = ADVANCED_FACE ( 'NONE', ( #105 ), #150, .T. ) ;
#274 = CARTESIAN_POINT ( 'NONE',  ( 0.7500000000000002220, -2.599999999999999645, 6.799999999999999822 ) ) ;
#275 = CARTESIAN_POINT ( 'NONE',  ( 0.7500000000000000000, -3.349999999999999645, 6.799999999999999822 ) ) ;
#276 = LINE ( 'NONE', #217, #204 ) ;
#277 = AXIS2_PLACEMENT_3D ( 'NONE', #216, #278, #39 ) ;
#278 = DIRECTION ( 'NONE',  ( 0.0000000000000000000, 0.0000000000000000000, 1.000000000000000000 ) ) ;
#279 = VECTOR ( 'NONE', #95, 1000.000000000000000 ) ;
#280 = AXIS2_PLACEMENT_3D ( 'NONE', #35, #206, #59 ) ;
#281 = EDGE_CURVE ( 'NONE', #45, #287, #151, .T. ) ;
#282 = ADVANCED_FACE ( 'NONE', ( #72 ), #129, .F. ) ;
#283 = CIRCLE ( 'NONE', #152, 3.064999999999999947 ) ;
#284 = PRODUCT_DEFINITION ( 'UNKNOWN', '', #75, #341 ) ;
#285 = VECTOR ( 'NONE', #268, 1000.000000000000000 ) ;
#286 = CARTESIAN_POINT ( 'NONE',  ( -0.7500000000000000000, -3.349999999999999645, 6.799999999999999822 ) ) ;
#287 = VERTEX_POINT ( 'NONE', #63 ) ;
#288 =( LENGTH_UNIT ( ) NAMED_UNIT ( * ) SI_UNIT ( .MILLI., .METRE. ) );
#289 = VECTOR ( 'NONE', #73, 1000.000000000000000 ) ;
#290 =( LENGTH_UNIT ( ) NAMED_UNIT ( * ) SI_UNIT ( .MILLI., .METRE. ) );
#291 = CARTESIAN_POINT ( 'NONE',  ( 0.0000000000000000000, 0.0000000000000000000, 0.0000000000000000000 ) ) ;
#292 = ORIENTED_EDGE ( 'NONE', *, *, #136, .T. ) ;
#293 = EDGE_CURVE ( 'NONE', #195, #41, #320, .T. ) ;
#294 = ORIENTED_EDGE ( 'NONE', *, *, #82, .T. ) ;
#295 = ORIENTED_EDGE ( 'NONE', *, *, #269, .F. ) ;
#296 = CARTESIAN_POINT ( 'NONE',  ( 1.623029574591911439, -2.600000000000000089, 6.799999999999999822 ) ) ;
#297 = DIRECTION ( 'NONE',  ( 0.0000000000000000000, 0.0000000000000000000, 1.000000000000000000 ) ) ;
#298 = STYLED_ITEM ( 'NONE', ( #22 ), #44 ) ;
#299 = CARTESIAN_POINT ( 'NONE',  ( 0.7500000000000000000, -3.349999999999999645, 0.0000000000000000000 ) ) ;
#300 = DIRECTION ( 'NONE',  ( -2.891205793294679312E-16, -1.000000000000000000, -0.0000000000000000000 ) ) ;
#301 = ORIENTED_EDGE ( 'NONE', *, *, #302, .F. ) ;
#302 = EDGE_CURVE ( 'NONE', #52, #124, #310, .T. ) ;
#303 = CARTESIAN_POINT ( 'NONE',  ( -0.7499999999999997780, -2.600000000000000089, 0.0000000000000000000 ) ) ;
#304 = ORIENTED_EDGE ( 'NONE', *, *, #125, .F. ) ;
#305 = ORIENTED_EDGE ( 'NONE', *, *, #49, .F. ) ;
#306 = MANIFOLD_SOLID_BREP ( 'Boss.-Extru.1', #36 ) ;
#307 = EDGE_CURVE ( 'NONE', #335, #97, #131, .T. ) ;
#308 = ADVANCED_FACE ( 'NONE', ( #8 ), #140, .F. ) ;
#309 = ORIENTED_EDGE ( 'NONE', *, *, #261, .F. ) ;
#310 = LINE ( 'NONE', #89, #339 ) ;
#311 = UNCERTAINTY_MEASURE_WITH_UNIT (LENGTH_MEASURE( 1.000000000000000082E-05 ), #290, 'distance_accuracy_value', 'NONE');
#312 = ORIENTED_EDGE ( 'NONE', *, *, #293, .F. ) ;
#313 = AXIS2_PLACEMENT_3D ( 'NONE', #326, #244, #118 ) ;
#314 = CARTESIAN_POINT ( 'NONE',  ( 1.113204832903630370, -1.100000000000000089, 6.799999999999999822 ) ) ;
#315 = EDGE_LOOP ( 'NONE', ( #156, #76, #224, #29 ) ) ;
#316 = SURFACE_STYLE_USAGE ( .BOTH. , #234 ) ;
#317 = PRODUCT_RELATED_PRODUCT_CATEGORY ( 'part', '', ( #69 ) ) ;
#318 = FILL_AREA_STYLE ('',( #33 ) ) ;
#319 = ORIENTED_EDGE ( 'NONE', *, *, #121, .F. ) ;
#320 = LINE ( 'NONE', #275, #259 ) ;
#321 =( NAMED_UNIT ( * ) SI_UNIT ( $, .STERADIAN. ) SOLID_ANGLE_UNIT ( ) );
#322 = VECTOR ( 'NONE', #43, 1000.000000000000000 ) ;
#323 = ORIENTED_EDGE ( 'NONE', *, *, #188, .T. ) ;
#324 = LINE ( 'NONE', #242, #279 ) ;
#325 = ORIENTED_EDGE ( 'NONE', *, *, #49, .T. ) ;
#326 = CARTESIAN_POINT ( 'NONE',  ( 0.0000000000000000000, 0.0000000000000000000, 0.0000000000000000000 ) ) ;
#327 = EDGE_CURVE ( 'NONE', #47, #30, #146, .T. ) ;
#328 = CARTESIAN_POINT ( 'NONE',  ( 0.0000000000000000000, 0.0000000000000000000, 6.799999999999999822 ) ) ;
#329 = DIRECTION ( 'NONE',  ( -1.000000000000000000, 4.967539263454179714E-16, 0.0000000000000000000 ) ) ;
#330 = DIRECTION ( 'NONE',  ( 1.000000000000000000, 0.0000000000000000000, -0.0000000000000000000 ) ) ;
#331 = CARTESIAN_POINT ( 'NONE',  ( -1.113204832903630370, -1.100000000000000089, 6.799999999999999822 ) ) ;
#332 = CARTESIAN_POINT ( 'NONE',  ( -1.623029574591911439, -2.600000000000000089, 6.799999999999999822 ) ) ;
#333 = DIRECTION ( 'NONE',  ( 1.000000000000000000, 0.0000000000000000000, 0.0000000000000000000 ) ) ;
#334 = CARTESIAN_POINT ( 'NONE',  ( -1.113204832903630370, -1.100000000000000089, 6.799999999999999822 ) ) ;
#335 = VERTEX_POINT ( 'NONE', #159 ) ;
#336 = SURFACE_STYLE_FILL_AREA ( #9 ) ;
#337 = ORIENTED_EDGE ( 'NONE', *, *, #167, .F. ) ;
#338 = AXIS2_PLACEMENT_3D ( 'NONE', #6, #87, #110 ) ;
#339 = VECTOR ( 'NONE', #158, 1000.000000000000000 ) ;
#340 = AXIS2_PLACEMENT_3D ( 'NONE', #332, #162, #14 ) ;
#341 = PRODUCT_DEFINITION_CONTEXT ( 'detailed design', #232, 'design' ) ;
#342 = ADVANCED_FACE ( 'NONE', ( #205 ), #243, .T. ) ;
ENDSEC;
END-ISO-10303-21;
