ISO-10303-21;
HEADER;
/* Generated by software containing ST-Developer
 * from STEP Tools, Inc. (www.steptools.com) 
 */

FILE_DESCRIPTION(
/* description */ (''),
/* implementation_level */ '2;1');

FILE_NAME(
/* name */ 
'C:\\Users\\Yann\\Desktop\\ConcordeScaledMainLandingGearLowerLeg.stp',
/* time_stamp */ '2019-01-21T20:13:44+01:00',
/* author */ ('Yann'),
/* organization */ (''),
/* preprocessor_version */ 'ST-DEVELOPER v17',
/* originating_system */ 'Autodesk Inventor 2019',
/* authorisation */ '');

FILE_SCHEMA (('AUTOMOTIVE_DESIGN { 1 0 10303 214 3 1 1 }'));
ENDSEC;

DATA;
#10=MECHANICAL_DESIGN_GEOMETRIC_PRESENTATION_REPRESENTATION('',(#13),#380);
#11=SHAPE_REPRESENTATION_RELATIONSHIP('SRR','None',#387,#12);
#12=ADVANCED_BREP_SHAPE_REPRESENTATION('',(#14),#379);
#13=STYLED_ITEM('',(#396),#14);
#14=MANIFOLD_SOLID_BREP('Solid1',#210);
#15=FACE_BOUND('',#42,.T.);
#16=FACE_BOUND('',#47,.T.);
#17=FACE_BOUND('',#50,.T.);
#18=PLANE('',#233);
#19=PLANE('',#234);
#20=PLANE('',#235);
#21=PLANE('',#237);
#22=PLANE('',#243);
#23=PLANE('',#244);
#24=PLANE('',#246);
#25=PLANE('',#247);
#26=PLANE('',#253);
#27=FACE_OUTER_BOUND('',#39,.T.);
#28=FACE_OUTER_BOUND('',#40,.T.);
#29=FACE_OUTER_BOUND('',#41,.T.);
#30=FACE_OUTER_BOUND('',#43,.T.);
#31=FACE_OUTER_BOUND('',#44,.T.);
#32=FACE_OUTER_BOUND('',#45,.T.);
#33=FACE_OUTER_BOUND('',#46,.T.);
#34=FACE_OUTER_BOUND('',#48,.T.);
#35=FACE_OUTER_BOUND('',#49,.T.);
#36=FACE_OUTER_BOUND('',#51,.T.);
#37=FACE_OUTER_BOUND('',#52,.T.);
#38=FACE_OUTER_BOUND('',#53,.T.);
#39=EDGE_LOOP('',(#141,#142,#143,#144));
#40=EDGE_LOOP('',(#145));
#41=EDGE_LOOP('',(#146,#147,#148,#149));
#42=EDGE_LOOP('',(#150));
#43=EDGE_LOOP('',(#151,#152));
#44=EDGE_LOOP('',(#153,#154,#155));
#45=EDGE_LOOP('',(#156,#157,#158,#159));
#46=EDGE_LOOP('',(#160,#161,#162,#163));
#47=EDGE_LOOP('',(#164));
#48=EDGE_LOOP('',(#165,#166));
#49=EDGE_LOOP('',(#167,#168,#169,#170));
#50=EDGE_LOOP('',(#171));
#51=EDGE_LOOP('',(#172,#173));
#52=EDGE_LOOP('',(#174,#175,#176,#177,#178,#179,#180,#181,#182,#183,#184,
#185,#186,#187,#188,#189));
#53=EDGE_LOOP('',(#190,#191,#192,#193,#194));
#54=LINE('',#324,#69);
#55=LINE('',#330,#70);
#56=LINE('',#332,#71);
#57=LINE('',#334,#72);
#58=LINE('',#335,#73);
#59=LINE('',#346,#74);
#60=LINE('',#351,#75);
#61=LINE('',#353,#76);
#62=LINE('',#355,#77);
#63=LINE('',#356,#78);
#64=LINE('',#362,#79);
#65=LINE('',#364,#80);
#66=LINE('',#366,#81);
#67=LINE('',#367,#82);
#68=LINE('',#373,#83);
#69=VECTOR('',#260,1.);
#70=VECTOR('',#267,10.);
#71=VECTOR('',#268,10.);
#72=VECTOR('',#269,10.);
#73=VECTOR('',#270,10.);
#74=VECTOR('',#285,2.5);
#75=VECTOR('',#290,10.);
#76=VECTOR('',#291,10.);
#77=VECTOR('',#292,10.);
#78=VECTOR('',#293,10.);
#79=VECTOR('',#300,10.);
#80=VECTOR('',#301,10.);
#81=VECTOR('',#302,10.);
#82=VECTOR('',#303,10.);
#83=VECTOR('',#312,5.);
#84=CIRCLE('',#231,1.);
#85=CIRCLE('',#232,1.);
#86=CIRCLE('',#236,5.);
#87=CIRCLE('',#238,5.);
#88=CIRCLE('',#239,5.);
#89=CIRCLE('',#241,2.5);
#90=CIRCLE('',#242,2.5);
#91=CIRCLE('',#245,5.);
#92=CIRCLE('',#248,5.);
#93=CIRCLE('',#250,5.);
#94=CIRCLE('',#251,5.);
#95=CIRCLE('',#252,5.);
#96=VERTEX_POINT('',#321);
#97=VERTEX_POINT('',#323);
#98=VERTEX_POINT('',#328);
#99=VERTEX_POINT('',#329);
#100=VERTEX_POINT('',#331);
#101=VERTEX_POINT('',#333);
#102=VERTEX_POINT('',#339);
#103=VERTEX_POINT('',#343);
#104=VERTEX_POINT('',#345);
#105=VERTEX_POINT('',#349);
#106=VERTEX_POINT('',#350);
#107=VERTEX_POINT('',#352);
#108=VERTEX_POINT('',#354);
#109=VERTEX_POINT('',#360);
#110=VERTEX_POINT('',#361);
#111=VERTEX_POINT('',#363);
#112=VERTEX_POINT('',#365);
#113=VERTEX_POINT('',#371);
#114=EDGE_CURVE('',#96,#96,#84,.T.);
#115=EDGE_CURVE('',#96,#97,#54,.T.);
#116=EDGE_CURVE('',#97,#97,#85,.T.);
#117=EDGE_CURVE('',#98,#99,#55,.T.);
#118=EDGE_CURVE('',#100,#98,#56,.T.);
#119=EDGE_CURVE('',#100,#101,#57,.T.);
#120=EDGE_CURVE('',#99,#101,#58,.T.);
#121=EDGE_CURVE('',#101,#100,#86,.T.);
#122=EDGE_CURVE('',#99,#102,#87,.T.);
#123=EDGE_CURVE('',#102,#98,#88,.T.);
#124=EDGE_CURVE('',#103,#103,#89,.T.);
#125=EDGE_CURVE('',#103,#104,#59,.T.);
#126=EDGE_CURVE('',#104,#104,#90,.T.);
#127=EDGE_CURVE('',#105,#106,#60,.T.);
#128=EDGE_CURVE('',#107,#105,#61,.T.);
#129=EDGE_CURVE('',#107,#108,#62,.T.);
#130=EDGE_CURVE('',#106,#108,#63,.T.);
#131=EDGE_CURVE('',#108,#107,#91,.T.);
#132=EDGE_CURVE('',#109,#110,#64,.T.);
#133=EDGE_CURVE('',#111,#109,#65,.T.);
#134=EDGE_CURVE('',#111,#112,#66,.T.);
#135=EDGE_CURVE('',#110,#112,#67,.T.);
#136=EDGE_CURVE('',#112,#111,#92,.T.);
#137=EDGE_CURVE('',#113,#105,#93,.T.);
#138=EDGE_CURVE('',#113,#102,#68,.T.);
#139=EDGE_CURVE('',#110,#113,#94,.T.);
#140=EDGE_CURVE('',#106,#109,#95,.T.);
#141=ORIENTED_EDGE('',*,*,#114,.F.);
#142=ORIENTED_EDGE('',*,*,#115,.T.);
#143=ORIENTED_EDGE('',*,*,#116,.T.);
#144=ORIENTED_EDGE('',*,*,#115,.F.);
#145=ORIENTED_EDGE('',*,*,#116,.F.);
#146=ORIENTED_EDGE('',*,*,#117,.F.);
#147=ORIENTED_EDGE('',*,*,#118,.F.);
#148=ORIENTED_EDGE('',*,*,#119,.T.);
#149=ORIENTED_EDGE('',*,*,#120,.F.);
#150=ORIENTED_EDGE('',*,*,#114,.T.);
#151=ORIENTED_EDGE('',*,*,#119,.F.);
#152=ORIENTED_EDGE('',*,*,#121,.F.);
#153=ORIENTED_EDGE('',*,*,#117,.T.);
#154=ORIENTED_EDGE('',*,*,#122,.T.);
#155=ORIENTED_EDGE('',*,*,#123,.T.);
#156=ORIENTED_EDGE('',*,*,#124,.F.);
#157=ORIENTED_EDGE('',*,*,#125,.T.);
#158=ORIENTED_EDGE('',*,*,#126,.F.);
#159=ORIENTED_EDGE('',*,*,#125,.F.);
#160=ORIENTED_EDGE('',*,*,#127,.F.);
#161=ORIENTED_EDGE('',*,*,#128,.F.);
#162=ORIENTED_EDGE('',*,*,#129,.T.);
#163=ORIENTED_EDGE('',*,*,#130,.F.);
#164=ORIENTED_EDGE('',*,*,#124,.T.);
#165=ORIENTED_EDGE('',*,*,#131,.F.);
#166=ORIENTED_EDGE('',*,*,#129,.F.);
#167=ORIENTED_EDGE('',*,*,#132,.F.);
#168=ORIENTED_EDGE('',*,*,#133,.F.);
#169=ORIENTED_EDGE('',*,*,#134,.T.);
#170=ORIENTED_EDGE('',*,*,#135,.F.);
#171=ORIENTED_EDGE('',*,*,#126,.T.);
#172=ORIENTED_EDGE('',*,*,#134,.F.);
#173=ORIENTED_EDGE('',*,*,#136,.F.);
#174=ORIENTED_EDGE('',*,*,#130,.T.);
#175=ORIENTED_EDGE('',*,*,#131,.T.);
#176=ORIENTED_EDGE('',*,*,#128,.T.);
#177=ORIENTED_EDGE('',*,*,#137,.F.);
#178=ORIENTED_EDGE('',*,*,#138,.T.);
#179=ORIENTED_EDGE('',*,*,#122,.F.);
#180=ORIENTED_EDGE('',*,*,#120,.T.);
#181=ORIENTED_EDGE('',*,*,#121,.T.);
#182=ORIENTED_EDGE('',*,*,#118,.T.);
#183=ORIENTED_EDGE('',*,*,#123,.F.);
#184=ORIENTED_EDGE('',*,*,#138,.F.);
#185=ORIENTED_EDGE('',*,*,#139,.F.);
#186=ORIENTED_EDGE('',*,*,#135,.T.);
#187=ORIENTED_EDGE('',*,*,#136,.T.);
#188=ORIENTED_EDGE('',*,*,#133,.T.);
#189=ORIENTED_EDGE('',*,*,#140,.F.);
#190=ORIENTED_EDGE('',*,*,#127,.T.);
#191=ORIENTED_EDGE('',*,*,#140,.T.);
#192=ORIENTED_EDGE('',*,*,#132,.T.);
#193=ORIENTED_EDGE('',*,*,#139,.T.);
#194=ORIENTED_EDGE('',*,*,#137,.T.);
#195=CYLINDRICAL_SURFACE('',#230,1.);
#196=CYLINDRICAL_SURFACE('',#240,2.5);
#197=CYLINDRICAL_SURFACE('',#249,5.);
#198=ADVANCED_FACE('',(#27),#195,.F.);
#199=ADVANCED_FACE('',(#28),#18,.F.);
#200=ADVANCED_FACE('',(#29,#15),#19,.F.);
#201=ADVANCED_FACE('',(#30),#20,.T.);
#202=ADVANCED_FACE('',(#31),#21,.F.);
#203=ADVANCED_FACE('',(#32),#196,.F.);
#204=ADVANCED_FACE('',(#33,#16),#22,.F.);
#205=ADVANCED_FACE('',(#34),#23,.T.);
#206=ADVANCED_FACE('',(#35,#17),#24,.F.);
#207=ADVANCED_FACE('',(#36),#25,.F.);
#208=ADVANCED_FACE('',(#37),#197,.T.);
#209=ADVANCED_FACE('',(#38),#26,.T.);
#210=CLOSED_SHELL('',(#198,#199,#200,#201,#202,#203,#204,#205,#206,#207,
#208,#209));
#211=DERIVED_UNIT_ELEMENT(#213,1.);
#212=DERIVED_UNIT_ELEMENT(#382,3.);
#213=(
MASS_UNIT()
NAMED_UNIT(*)
SI_UNIT($,.GRAM.)
);
#214=DERIVED_UNIT((#211,#212));
#215=MEASURE_REPRESENTATION_ITEM('density measure',
POSITIVE_RATIO_MEASURE(2.7),#214);
#216=PROPERTY_DEFINITION_REPRESENTATION(#221,#218);
#217=PROPERTY_DEFINITION_REPRESENTATION(#222,#219);
#218=REPRESENTATION('material name',(#220),#379);
#219=REPRESENTATION('density',(#215),#379);
#220=DESCRIPTIVE_REPRESENTATION_ITEM('Aluminum 6061-AHC',
'Aluminum 6061-AHC');
#221=PROPERTY_DEFINITION('material property','material name',#389);
#222=PROPERTY_DEFINITION('material property','density of part',#389);
#223=DATE_TIME_ROLE('creation_date');
#224=APPLIED_DATE_AND_TIME_ASSIGNMENT(#225,#223,(#389));
#225=DATE_AND_TIME(#226,#227);
#226=CALENDAR_DATE(2018,14,10);
#227=LOCAL_TIME(11,8,3.,#228);
#228=COORDINATED_UNIVERSAL_TIME_OFFSET(0,0,.BEHIND.);
#229=AXIS2_PLACEMENT_3D('placement',#319,#254,#255);
#230=AXIS2_PLACEMENT_3D('',#320,#256,#257);
#231=AXIS2_PLACEMENT_3D('',#322,#258,#259);
#232=AXIS2_PLACEMENT_3D('',#325,#261,#262);
#233=AXIS2_PLACEMENT_3D('',#326,#263,#264);
#234=AXIS2_PLACEMENT_3D('',#327,#265,#266);
#235=AXIS2_PLACEMENT_3D('',#336,#271,#272);
#236=AXIS2_PLACEMENT_3D('',#337,#273,#274);
#237=AXIS2_PLACEMENT_3D('',#338,#275,#276);
#238=AXIS2_PLACEMENT_3D('',#340,#277,#278);
#239=AXIS2_PLACEMENT_3D('',#341,#279,#280);
#240=AXIS2_PLACEMENT_3D('',#342,#281,#282);
#241=AXIS2_PLACEMENT_3D('',#344,#283,#284);
#242=AXIS2_PLACEMENT_3D('',#347,#286,#287);
#243=AXIS2_PLACEMENT_3D('',#348,#288,#289);
#244=AXIS2_PLACEMENT_3D('',#357,#294,#295);
#245=AXIS2_PLACEMENT_3D('',#358,#296,#297);
#246=AXIS2_PLACEMENT_3D('',#359,#298,#299);
#247=AXIS2_PLACEMENT_3D('',#368,#304,#305);
#248=AXIS2_PLACEMENT_3D('',#369,#306,#307);
#249=AXIS2_PLACEMENT_3D('',#370,#308,#309);
#250=AXIS2_PLACEMENT_3D('',#372,#310,#311);
#251=AXIS2_PLACEMENT_3D('',#374,#313,#314);
#252=AXIS2_PLACEMENT_3D('',#375,#315,#316);
#253=AXIS2_PLACEMENT_3D('',#376,#317,#318);
#254=DIRECTION('axis',(0.,0.,1.));
#255=DIRECTION('refdir',(1.,0.,0.));
#256=DIRECTION('center_axis',(-1.73472347597681E-16,0.,1.));
#257=DIRECTION('ref_axis',(1.,0.,1.73472347597681E-16));
#258=DIRECTION('center_axis',(-1.85037170770859E-16,0.,1.));
#259=DIRECTION('ref_axis',(1.,0.,1.73472347597681E-16));
#260=DIRECTION('',(-1.73472347597681E-16,0.,1.));
#261=DIRECTION('center_axis',(-1.85037170770859E-16,0.,1.));
#262=DIRECTION('ref_axis',(1.,0.,1.85037170770859E-16));
#263=DIRECTION('center_axis',(-1.85037170770859E-16,-4.1086505480261E-32,
1.));
#264=DIRECTION('ref_axis',(1.,0.,1.85037170770859E-16));
#265=DIRECTION('center_axis',(-1.85037170770859E-16,0.,1.));
#266=DIRECTION('ref_axis',(1.,0.,1.85037170770859E-16));
#267=DIRECTION('',(1.,0.,1.85037170770859E-16));
#268=DIRECTION('',(0.,-1.,0.));
#269=DIRECTION('',(1.,0.,1.85037170770859E-16));
#270=DIRECTION('',(0.,1.,0.));
#271=DIRECTION('center_axis',(-1.50609676491538E-17,-1.,5.9918909746507E-31));
#272=DIRECTION('ref_axis',(0.,-5.9918909746507E-31,-1.));
#273=DIRECTION('center_axis',(1.50609676491538E-17,1.,-5.9918909746507E-31));
#274=DIRECTION('ref_axis',(1.,0.,0.));
#275=DIRECTION('center_axis',(0.,1.,0.));
#276=DIRECTION('ref_axis',(0.,0.,1.));
#277=DIRECTION('center_axis',(0.,-1.,0.));
#278=DIRECTION('ref_axis',(1.,0.,0.));
#279=DIRECTION('center_axis',(0.,-1.,0.));
#280=DIRECTION('ref_axis',(1.,0.,0.));
#281=DIRECTION('center_axis',(0.,0.,-1.));
#282=DIRECTION('ref_axis',(-1.,0.,0.));
#283=DIRECTION('center_axis',(0.,0.,-1.));
#284=DIRECTION('ref_axis',(-1.,0.,0.));
#285=DIRECTION('',(0.,0.,-1.));
#286=DIRECTION('center_axis',(0.,0.,1.));
#287=DIRECTION('ref_axis',(-1.,0.,0.));
#288=DIRECTION('center_axis',(0.,0.,-1.));
#289=DIRECTION('ref_axis',(1.,0.,0.));
#290=DIRECTION('',(1.,0.,0.));
#291=DIRECTION('',(0.,1.,0.));
#292=DIRECTION('',(1.,0.,0.));
#293=DIRECTION('',(0.,-1.,0.));
#294=DIRECTION('center_axis',(0.,1.,0.));
#295=DIRECTION('ref_axis',(0.,0.,1.));
#296=DIRECTION('center_axis',(0.,-1.,0.));
#297=DIRECTION('ref_axis',(1.,0.,0.));
#298=DIRECTION('center_axis',(0.,0.,1.));
#299=DIRECTION('ref_axis',(-1.,0.,0.));
#300=DIRECTION('',(-1.,0.,0.));
#301=DIRECTION('',(0.,1.,0.));
#302=DIRECTION('',(-1.,0.,0.));
#303=DIRECTION('',(0.,-1.,0.));
#304=DIRECTION('center_axis',(0.,-1.,0.));
#305=DIRECTION('ref_axis',(0.,0.,-1.));
#306=DIRECTION('center_axis',(0.,-1.,0.));
#307=DIRECTION('ref_axis',(1.,0.,0.));
#308=DIRECTION('center_axis',(0.,1.,0.));
#309=DIRECTION('ref_axis',(1.,0.,0.));
#310=DIRECTION('center_axis',(0.,1.,0.));
#311=DIRECTION('ref_axis',(1.,0.,0.));
#312=DIRECTION('',(0.,-1.,0.));
#313=DIRECTION('center_axis',(0.,1.,0.));
#314=DIRECTION('ref_axis',(1.,0.,0.));
#315=DIRECTION('center_axis',(0.,1.,0.));
#316=DIRECTION('ref_axis',(1.,0.,0.));
#317=DIRECTION('center_axis',(0.,1.,0.));
#318=DIRECTION('ref_axis',(0.,0.,1.));
#319=CARTESIAN_POINT('',(0.,0.,0.));
#320=CARTESIAN_POINT('Origin',(5.55111512312578E-16,3.,-4.));
#321=CARTESIAN_POINT('',(-1.,3.,-4.));
#322=CARTESIAN_POINT('Origin',(5.55111512312578E-16,3.,-4.));
#323=CARTESIAN_POINT('',(-1.,3.,0.));
#324=CARTESIAN_POINT('',(-1.,3.,-4.));
#325=CARTESIAN_POINT('Origin',(-1.38777878078145E-16,3.,0.));
#326=CARTESIAN_POINT('Origin',(-1.81365616455449E-17,3.,0.));
#327=CARTESIAN_POINT('Origin',(-3.,0.,-4.));
#328=CARTESIAN_POINT('',(-3.,0.,-4.));
#329=CARTESIAN_POINT('',(3.,0.,-4.));
#330=CARTESIAN_POINT('',(-1.5,0.,-4.));
#331=CARTESIAN_POINT('',(-3.,6.,-4.));
#332=CARTESIAN_POINT('',(-3.,0.,-4.));
#333=CARTESIAN_POINT('',(3.,6.,-4.));
#334=CARTESIAN_POINT('',(3.,6.,-4.));
#335=CARTESIAN_POINT('',(3.,0.,-4.));
#336=CARTESIAN_POINT('Origin',(7.35819844454776E-16,6.,-4.29511276842687));
#337=CARTESIAN_POINT('Origin',(0.,6.,0.));
#338=CARTESIAN_POINT('Origin',(2.36064120735332E-16,0.,0.));
#339=CARTESIAN_POINT('',(-5.,0.,6.12323399573677E-16));
#340=CARTESIAN_POINT('Origin',(0.,0.,0.));
#341=CARTESIAN_POINT('Origin',(0.,0.,0.));
#342=CARTESIAN_POINT('Origin',(5.55111512312578E-16,56.,4.));
#343=CARTESIAN_POINT('',(2.5,56.,4.));
#344=CARTESIAN_POINT('Origin',(5.55111512312578E-16,56.,4.));
#345=CARTESIAN_POINT('',(2.5,56.,-4.));
#346=CARTESIAN_POINT('',(2.5,56.,4.));
#347=CARTESIAN_POINT('Origin',(5.55111512312578E-16,56.,-4.));
#348=CARTESIAN_POINT('Origin',(-3.,60.,4.));
#349=CARTESIAN_POINT('',(-3.,60.,4.));
#350=CARTESIAN_POINT('',(3.,60.,4.));
#351=CARTESIAN_POINT('',(-1.5,60.,4.));
#352=CARTESIAN_POINT('',(-3.,45.,4.));
#353=CARTESIAN_POINT('',(-3.,0.,4.));
#354=CARTESIAN_POINT('',(3.,45.,4.));
#355=CARTESIAN_POINT('',(3.,45.,4.));
#356=CARTESIAN_POINT('',(3.,0.,4.));
#357=CARTESIAN_POINT('Origin',(4.25594798287762E-16,45.,4.29511276842687));
#358=CARTESIAN_POINT('Origin',(0.,45.,0.));
#359=CARTESIAN_POINT('Origin',(3.,60.,-4.));
#360=CARTESIAN_POINT('',(3.,60.,-4.));
#361=CARTESIAN_POINT('',(-3.,60.,-4.));
#362=CARTESIAN_POINT('',(1.5,60.,-4.));
#363=CARTESIAN_POINT('',(3.,45.,-4.));
#364=CARTESIAN_POINT('',(3.,0.,-4.));
#365=CARTESIAN_POINT('',(-3.,45.,-4.));
#366=CARTESIAN_POINT('',(-3.,45.,-4.));
#367=CARTESIAN_POINT('',(-3.,0.,-4.));
#368=CARTESIAN_POINT('Origin',(4.23017046012546E-16,45.,-4.29511276842687));
#369=CARTESIAN_POINT('Origin',(0.,45.,0.));
#370=CARTESIAN_POINT('Origin',(0.,0.,0.));
#371=CARTESIAN_POINT('',(-5.,60.,6.12323399573677E-16));
#372=CARTESIAN_POINT('Origin',(0.,60.,0.));
#373=CARTESIAN_POINT('',(-5.,0.,6.12323399573677E-16));
#374=CARTESIAN_POINT('Origin',(0.,60.,0.));
#375=CARTESIAN_POINT('Origin',(0.,60.,0.));
#376=CARTESIAN_POINT('Origin',(2.36064120735332E-16,60.,0.));
#377=UNCERTAINTY_MEASURE_WITH_UNIT(LENGTH_MEASURE(0.01),#381,
'DISTANCE_ACCURACY_VALUE',
'Maximum model space distance between geometric entities at asserted c
onnectivities');
#378=UNCERTAINTY_MEASURE_WITH_UNIT(LENGTH_MEASURE(0.01),#381,
'DISTANCE_ACCURACY_VALUE',
'Maximum model space distance between geometric entities at asserted c
onnectivities');
#379=(
GEOMETRIC_REPRESENTATION_CONTEXT(3)
GLOBAL_UNCERTAINTY_ASSIGNED_CONTEXT((#377))
GLOBAL_UNIT_ASSIGNED_CONTEXT((#381,#384,#383))
REPRESENTATION_CONTEXT('','3D')
);
#380=(
GEOMETRIC_REPRESENTATION_CONTEXT(3)
GLOBAL_UNCERTAINTY_ASSIGNED_CONTEXT((#378))
GLOBAL_UNIT_ASSIGNED_CONTEXT((#381,#384,#383))
REPRESENTATION_CONTEXT('','3D')
);
#381=(
LENGTH_UNIT()
NAMED_UNIT(*)
SI_UNIT(.MILLI.,.METRE.)
);
#382=(
LENGTH_UNIT()
NAMED_UNIT(*)
SI_UNIT(.CENTI.,.METRE.)
);
#383=(
NAMED_UNIT(*)
SI_UNIT($,.STERADIAN.)
SOLID_ANGLE_UNIT()
);
#384=(
NAMED_UNIT(*)
PLANE_ANGLE_UNIT()
SI_UNIT($,.RADIAN.)
);
#385=SHAPE_DEFINITION_REPRESENTATION(#386,#387);
#386=PRODUCT_DEFINITION_SHAPE('',$,#389);
#387=SHAPE_REPRESENTATION('',(#229),#379);
#388=PRODUCT_DEFINITION_CONTEXT('part definition',#393,'design');
#389=PRODUCT_DEFINITION('ConcordeScaledMainLandingGearProto2',
'ConcordeScaledMainLandingGearLowerLeg',#390,#388);
#390=PRODUCT_DEFINITION_FORMATION('',$,#395);
#391=PRODUCT_RELATED_PRODUCT_CATEGORY(
'ConcordeScaledMainLandingGearLowerLeg',
'ConcordeScaledMainLandingGearLowerLeg',(#395));
#392=APPLICATION_PROTOCOL_DEFINITION('international standard',
'automotive_design',2009,#393);
#393=APPLICATION_CONTEXT(
'Core Data for Automotive Mechanical Design Process');
#394=PRODUCT_CONTEXT('part definition',#393,'mechanical');
#395=PRODUCT('ConcordeScaledMainLandingGearProto2',
'ConcordeScaledMainLandingGearLowerLeg',$,(#394));
#396=PRESENTATION_STYLE_ASSIGNMENT((#397));
#397=SURFACE_STYLE_USAGE(.BOTH.,#398);
#398=SURFACE_SIDE_STYLE('',(#399));
#399=SURFACE_STYLE_FILL_AREA(#400);
#400=FILL_AREA_STYLE('',(#401));
#401=FILL_AREA_STYLE_COLOUR('',#402);
#402=COLOUR_RGB('',0.956862745098039,0.956862745098039,0.956862745098039);
ENDSEC;
END-ISO-10303-21;
