ISO-10303-21;
HEADER;
FILE_DESCRIPTION (( 'STEP AP203' ),
    '1' );
FILE_NAME ('Support.STEP',
    '2019-01-29T21:08:38',
    ( '' ),
    ( '' ),
    'SwSTEP 2.0',
    'SolidWorks 2014',
    '' );
FILE_SCHEMA (( 'CONFIG_CONTROL_DESIGN' ));
ENDSEC;

DATA;
#1 = AXIS2_PLACEMENT_3D ( 'NONE', #316, #136, #346 ) ;
#2 = APPLICATION_CONTEXT ( 'configuration controlled 3d designs of mechanical parts and assemblies' ) ;
#3 = CARTESIAN_POINT ( 'NONE',  ( 0.0000000000000000000, 0.0000000000000000000, -63.00000000000000000 ) ) ;
#4 = ORIENTED_EDGE ( 'NONE', *, *, #172, .T. ) ;
#5 = FACE_OUTER_BOUND ( 'NONE', #365, .T. ) ;
#6 = LINE ( 'NONE', #198, #26 ) ;
#7 = VERTEX_POINT ( 'NONE', #258 ) ;
#8 = VERTEX_POINT ( 'NONE', #80 ) ;
#9 = ADVANCED_FACE ( 'NONE', ( #305 ), #275, .T. ) ;
#10 = UNCERTAINTY_MEASURE_WITH_UNIT (LENGTH_MEASURE( 1.000000000000000100E-005 ), #22, 'distance_accuracy_value', 'NONE');
#11 = CARTESIAN_POINT ( 'NONE',  ( 8.000000000000000000, 40.00000000000000000, 0.0000000000000000000 ) ) ;
#12 = FACE_OUTER_BOUND ( 'NONE', #171, .T. ) ;
#13 = LINE ( 'NONE', #113, #306 ) ;
#14 = ORIENTED_EDGE ( 'NONE', *, *, #116, .F. ) ;
#15 = LOCAL_TIME ( 22, 8, 38.00000000000000000, #76 ) ;
#16 = DIRECTION ( 'NONE',  ( 0.0000000000000000000, -1.000000000000000000, 0.0000000000000000000 ) ) ;
#17 = DIRECTION ( 'NONE',  ( -1.000000000000000000, 0.0000000000000000000, 0.0000000000000000000 ) ) ;
#18 = CARTESIAN_POINT ( 'NONE',  ( 0.0000000000000000000, 0.0000000000000000000, -63.00000000000000000 ) ) ;
#19 = CARTESIAN_POINT ( 'NONE',  ( 0.0000000000000000000, 0.0000000000000000000, -63.00000000000000000 ) ) ;
#20 = ORIENTED_EDGE ( 'NONE', *, *, #154, .T. ) ;
#21 = PLANE ( 'NONE',  #207 ) ;
#22 =( LENGTH_UNIT ( ) NAMED_UNIT ( * ) SI_UNIT ( .MILLI., .METRE. ) );
#23 = APPROVAL_STATUS ( 'not_yet_approved' ) ;
#24 = CARTESIAN_POINT ( 'NONE',  ( 48.00000000000000000, 0.0000000000000000000, -63.00000000000000000 ) ) ;
#25 = VECTOR ( 'NONE', #148, 1000.000000000000000 ) ;
#26 = VECTOR ( 'NONE', #81, 1000.000000000000000 ) ;
#27 = LINE ( 'NONE', #24, #222 ) ;
#28 = ORIENTED_EDGE ( 'NONE', *, *, #154, .F. ) ;
#29 = VERTEX_POINT ( 'NONE', #304 ) ;
#30 = COORDINATED_UNIVERSAL_TIME_OFFSET ( 1, 0, .AHEAD. ) ;
#31 = PLANE ( 'NONE',  #162 ) ;
#32 = LINE ( 'NONE', #3, #102 ) ;
#33 = DIRECTION ( 'NONE',  ( -0.0000000000000000000, -1.000000000000000000, -0.0000000000000000000 ) ) ;
#34 = LOCAL_TIME ( 22, 8, 38.00000000000000000, #104 ) ;
#35 = DIRECTION ( 'NONE',  ( -1.000000000000000000, -0.0000000000000000000, -0.0000000000000000000 ) ) ;
#36 = CARTESIAN_POINT ( 'NONE',  ( 40.00000000000000000, 0.0000000000000000000, -63.00000000000000000 ) ) ;
#37 = VECTOR ( 'NONE', #85, 1000.000000000000000 ) ;
#38 = LOCAL_TIME ( 22, 8, 38.00000000000000000, #111 ) ;
#39 = ORIENTED_EDGE ( 'NONE', *, *, #279, .F. ) ;
#40 = AXIS2_PLACEMENT_3D ( 'NONE', #18, #348, #227 ) ;
#41 = CARTESIAN_POINT ( 'NONE',  ( 40.00000000000000000, 0.0000000000000000000, -63.00000000000000000 ) ) ;
#42 = DIRECTION ( 'NONE',  ( -0.0000000000000000000, -1.000000000000000000, -0.0000000000000000000 ) ) ;
#43 =( GEOMETRIC_REPRESENTATION_CONTEXT ( 3 ) GLOBAL_UNCERTAINTY_ASSIGNED_CONTEXT ( ( #10 ) ) GLOBAL_UNIT_ASSIGNED_CONTEXT ( ( #22, #218, #50 ) ) REPRESENTATION_CONTEXT ( 'NONE', 'WORKASPACE' ) );
#44 = FACE_OUTER_BOUND ( 'NONE', #364, .T. ) ;
#45 = APPROVAL_DATE_TIME ( #117, #293 ) ;
#46 = ORIENTED_EDGE ( 'NONE', *, *, #317, .F. ) ;
#47 = LINE ( 'NONE', #262, #181 ) ;
#48 = ORIENTED_EDGE ( 'NONE', *, *, #336, .T. ) ;
#49 = DIRECTION ( 'NONE',  ( 1.000000000000000000, 0.0000000000000000000, 0.0000000000000000000 ) ) ;
#50 =( NAMED_UNIT ( * ) SI_UNIT ( $, .STERADIAN. ) SOLID_ANGLE_UNIT ( ) );
#51 = CALENDAR_DATE ( 2019, 29, 1 ) ;
#52 = PERSON_AND_ORGANIZATION_ROLE ( 'creator' ) ;
#53 = CARTESIAN_POINT ( 'NONE',  ( 8.000000000000000000, 0.0000000000000000000, 0.0000000000000000000 ) ) ;
#54 = LINE ( 'NONE', #170, #352 ) ;
#55 = DESIGN_CONTEXT ( 'detailed design', #2, 'design' ) ;
#56 = ORIENTED_EDGE ( 'NONE', *, *, #333, .F. ) ;
#57 = LINE ( 'NONE', #311, #129 ) ;
#58 = ORIENTED_EDGE ( 'NONE', *, *, #215, .T. ) ;
#59 = PLANE ( 'NONE',  #131 ) ;
#60 = AXIS2_PLACEMENT_3D ( 'NONE', #87, #123, #325 ) ;
#61 = ORIENTED_EDGE ( 'NONE', *, *, #155, .T. ) ;
#62 = VERTEX_POINT ( 'NONE', #197 ) ;
#63 = DIRECTION ( 'NONE',  ( -1.000000000000000000, 0.0000000000000000000, 0.0000000000000000000 ) ) ;
#64 = PLANE ( 'NONE',  #244 ) ;
#65 = DIRECTION ( 'NONE',  ( 0.0000000000000000000, 1.000000000000000000, 0.0000000000000000000 ) ) ;
#66 = PLANE ( 'NONE',  #60 ) ;
#67 = ORIENTED_EDGE ( 'NONE', *, *, #169, .F. ) ;
#68 = CARTESIAN_POINT ( 'NONE',  ( 48.00000000000000000, 0.0000000000000000000, 0.0000000000000000000 ) ) ;
#69 = ORIENTED_EDGE ( 'NONE', *, *, #333, .T. ) ;
#70 = FACE_OUTER_BOUND ( 'NONE', #182, .T. ) ;
#71 = FACE_OUTER_BOUND ( 'NONE', #288, .T. ) ;
#72 = CARTESIAN_POINT ( 'NONE',  ( 8.000000000000000000, 40.00000000000000000, -63.00000000000000000 ) ) ;
#73 = APPLICATION_PROTOCOL_DEFINITION ( 'international standard', 'config_control_design', 1994, #100 ) ;
#74 = ORIENTED_EDGE ( 'NONE', *, *, #95, .T. ) ;
#75 = LINE ( 'NONE', #320, #145 ) ;
#76 = COORDINATED_UNIVERSAL_TIME_OFFSET ( 1, 0, .AHEAD. ) ;
#77 = ADVANCED_FACE ( 'NONE', ( #12 ), #178, .T. ) ;
#78 = DIRECTION ( 'NONE',  ( -0.0000000000000000000, -0.0000000000000000000, 1.000000000000000000 ) ) ;
#79 = DIRECTION ( 'NONE',  ( 0.0000000000000000000, 0.0000000000000000000, -1.000000000000000000 ) ) ;
#80 = CARTESIAN_POINT ( 'NONE',  ( 8.000000000000000000, 0.0000000000000000000, -63.00000000000000000 ) ) ;
#81 = DIRECTION ( 'NONE',  ( -0.0000000000000000000, -0.0000000000000000000, 1.000000000000000000 ) ) ;
#82 = VECTOR ( 'NONE', #163, 1000.000000000000000 ) ;
#83 = PERSON_AND_ORGANIZATION_ROLE ( 'creator' ) ;
#84 = CARTESIAN_POINT ( 'NONE',  ( 40.00000000000000000, 0.0000000000000000000, 0.0000000000000000000 ) ) ;
#85 = DIRECTION ( 'NONE',  ( 0.0000000000000000000, 1.000000000000000000, 0.0000000000000000000 ) ) ;
#86 = CARTESIAN_POINT ( 'NONE',  ( 8.000000000000000000, 40.00000000000000000, -63.00100000000000500 ) ) ;
#87 = CARTESIAN_POINT ( 'NONE',  ( 0.0000000000000000000, 0.0000000000000000000, 0.0000000000000000000 ) ) ;
#88 = VERTEX_POINT ( 'NONE', #151 ) ;
#89 = AXIS2_PLACEMENT_3D ( 'NONE', #19, #63, #353 ) ;
#90 = CARTESIAN_POINT ( 'NONE',  ( 0.0000000000000000000, 0.0000000000000000000, 0.0000000000000000000 ) ) ;
#91 = LINE ( 'NONE', #360, #25 ) ;
#92 = VECTOR ( 'NONE', #49, 1000.000000000000000 ) ;
#93 = VECTOR ( 'NONE', #35, 1000.000000000000000 ) ;
#94 = ORIENTED_EDGE ( 'NONE', *, *, #234, .T. ) ;
#95 = EDGE_CURVE ( 'NONE', #29, #62, #221, .T. ) ;
#96 = ORIENTED_EDGE ( 'NONE', *, *, #281, .T. ) ;
#97 = VECTOR ( 'NONE', #267, 1000.000000000000000 ) ;
#98 = APPROVAL_PERSON_ORGANIZATION ( #175, #293, #261 ) ;
#99 = CARTESIAN_POINT ( 'NONE',  ( 0.0000000000000000000, 50.00000000000000000, -63.00000000000000000 ) ) ;
#100 = APPLICATION_CONTEXT ( 'configuration controlled 3d designs of mechanical parts and assemblies' ) ;
#101 = DIRECTION ( 'NONE',  ( 0.0000000000000000000, 0.0000000000000000000, 1.000000000000000000 ) ) ;
#102 = VECTOR ( 'NONE', #185, 1000.000000000000000 ) ;
#103 = ADVANCED_FACE ( 'NONE', ( #5 ), #59, .T. ) ;
#104 = COORDINATED_UNIVERSAL_TIME_OFFSET ( 1, 0, .AHEAD. ) ;
#105 = ORIENTED_EDGE ( 'NONE', *, *, #279, .T. ) ;
#106 = PLANE ( 'NONE',  #1 ) ;
#107 = LINE ( 'NONE', #146, #93 ) ;
#108 = ORIENTED_EDGE ( 'NONE', *, *, #116, .T. ) ;
#109 = PERSON_AND_ORGANIZATION ( #213, #270 ) ;
#110 = ADVANCED_FACE ( 'NONE', ( #70 ), #31, .F. ) ;
#111 = COORDINATED_UNIVERSAL_TIME_OFFSET ( 1, 0, .AHEAD. ) ;
#112 = VECTOR ( 'NONE', #125, 1000.000000000000000 ) ;
#113 = CARTESIAN_POINT ( 'NONE',  ( 8.000000000000000000, 40.00000000000000000, -63.00100000000000500 ) ) ;
#114 = SECURITY_CLASSIFICATION_LEVEL ( 'unclassified' ) ;
#115 = DIRECTION ( 'NONE',  ( 1.000000000000000000, 0.0000000000000000000, 0.0000000000000000000 ) ) ;
#116 = EDGE_CURVE ( 'NONE', #205, #277, #165, .T. ) ;
#117 = DATE_AND_TIME ( #243, #327 ) ;
#118 = CARTESIAN_POINT ( 'NONE',  ( 48.00000000000000000, 0.0000000000000000000, 0.0000000000000000000 ) ) ;
#119 = ORIENTED_EDGE ( 'NONE', *, *, #299, .T. ) ;
#120 = DIRECTION ( 'NONE',  ( 0.0000000000000000000, -0.0000000000000000000, 1.000000000000000000 ) ) ;
#121 = LINE ( 'NONE', #84, #343 ) ;
#122 = ORIENTED_EDGE ( 'NONE', *, *, #361, .F. ) ;
#123 = DIRECTION ( 'NONE',  ( 0.0000000000000000000, 0.0000000000000000000, -1.000000000000000000 ) ) ;
#124 = DIRECTION ( 'NONE',  ( 0.0000000000000000000, -1.000000000000000000, 0.0000000000000000000 ) ) ;
#125 = DIRECTION ( 'NONE',  ( 1.000000000000000000, 0.0000000000000000000, 0.0000000000000000000 ) ) ;
#126 = LOCAL_TIME ( 22, 8, 38.00000000000000000, #196 ) ;
#127 = LINE ( 'NONE', #90, #112 ) ;
#128 = ORIENTED_EDGE ( 'NONE', *, *, #169, .T. ) ;
#129 = VECTOR ( 'NONE', #33, 1000.000000000000000 ) ;
#130 = VERTEX_POINT ( 'NONE', #368 ) ;
#131 = AXIS2_PLACEMENT_3D ( 'NONE', #290, #79, #318 ) ;
#132 = DIRECTION ( 'NONE',  ( 1.000000000000000000, 0.0000000000000000000, 0.0000000000000000000 ) ) ;
#133 = AXIS2_PLACEMENT_3D ( 'NONE', #156, #310, #132 ) ;
#134 = ORIENTED_EDGE ( 'NONE', *, *, #300, .T. ) ;
#135 = EDGE_CURVE ( 'NONE', #7, #62, #237, .T. ) ;
#136 = DIRECTION ( 'NONE',  ( 1.000000000000000000, 0.0000000000000000000, 0.0000000000000000000 ) ) ;
#137 = ADVANCED_FACE ( 'NONE', ( #247 ), #21, .T. ) ;
#138 = ORIENTED_EDGE ( 'NONE', *, *, #281, .F. ) ;
#139 = DIRECTION ( 'NONE',  ( 0.0000000000000000000, 1.000000000000000000, 0.0000000000000000000 ) ) ;
#140 = DIRECTION ( 'NONE',  ( 1.000000000000000000, -0.0000000000000000000, 0.0000000000000000000 ) ) ;
#141 = ORIENTED_EDGE ( 'NONE', *, *, #234, .F. ) ;
#142 = DIRECTION ( 'NONE',  ( -0.0000000000000000000, -0.0000000000000000000, 1.000000000000000000 ) ) ;
#143 = DATE_TIME_ROLE ( 'classification_date' ) ;
#144 = LINE ( 'NONE', #72, #152 ) ;
#145 = VECTOR ( 'NONE', #355, 1000.000000000000000 ) ;
#146 = CARTESIAN_POINT ( 'NONE',  ( 0.0000000000000000000, 50.00000000000000000, 0.0000000000000000000 ) ) ;
#147 = APPROVAL_DATE_TIME ( #224, #340 ) ;
#148 = DIRECTION ( 'NONE',  ( -0.0000000000000000000, -0.0000000000000000000, 1.000000000000000000 ) ) ;
#149 = PLANE ( 'NONE',  #329 ) ;
#150 = CC_DESIGN_PERSON_AND_ORGANIZATION_ASSIGNMENT ( #183, #157, ( #177 ) ) ;
#151 = CARTESIAN_POINT ( 'NONE',  ( 48.00000000000000000, 50.00000000000000000, -63.00000000000000000 ) ) ;
#152 = VECTOR ( 'NONE', #228, 1000.000000000000000 ) ;
#153 = APPROVAL_PERSON_ORGANIZATION ( #231, #340, #168 ) ;
#154 = EDGE_CURVE ( 'NONE', #202, #130, #319, .T. ) ;
#155 = EDGE_CURVE ( 'NONE', #206, #200, #144, .T. ) ;
#156 = CARTESIAN_POINT ( 'NONE',  ( 0.0000000000000000000, 0.0000000000000000000, 0.0000000000000000000 ) ) ;
#157 = PERSON_AND_ORGANIZATION_ROLE ( 'design_owner' ) ;
#158 = VECTOR ( 'NONE', #282, 1000.000000000000000 ) ;
#159 = VERTEX_POINT ( 'NONE', #259 ) ;
#160 = CARTESIAN_POINT ( 'NONE',  ( 48.00000000000000000, 0.0000000000000000000, -63.00000000000000000 ) ) ;
#161 = ORIENTED_EDGE ( 'NONE', *, *, #214, .T. ) ;
#162 = AXIS2_PLACEMENT_3D ( 'NONE', #295, #140, #303 ) ;
#163 = DIRECTION ( 'NONE',  ( -1.000000000000000000, -0.0000000000000000000, -0.0000000000000000000 ) ) ;
#164 = PRODUCT_DEFINITION ( 'UNKNOWN', '', #274, #55 ) ;
#165 = LINE ( 'NONE', #217, #92 ) ;
#166 = VECTOR ( 'NONE', #78, 1000.000000000000000 ) ;
#167 = ORIENTED_EDGE ( 'NONE', *, *, #251, .F. ) ;
#168 = APPROVAL_ROLE ( '' ) ;
#169 = EDGE_CURVE ( 'NONE', #200, #130, #13, .T. ) ;
#170 = CARTESIAN_POINT ( 'NONE',  ( 8.000000000000000000, 0.0000000000000000000, -63.00000000000000000 ) ) ;
#171 = EDGE_LOOP ( 'NONE', ( #266, #46, #276, #354 ) ) ;
#172 = EDGE_CURVE ( 'NONE', #7, #8, #75, .T. ) ;
#173 = APPROVAL_STATUS ( 'not_yet_approved' ) ;
#174 = FACE_OUTER_BOUND ( 'NONE', #216, .T. ) ;
#175 = PERSON_AND_ORGANIZATION ( #213, #270 ) ;
#176 = LINE ( 'NONE', #41, #249 ) ;
#177 = PRODUCT ( 'Support', 'Support', '', ( #338 ) ) ;
#178 = PLANE ( 'NONE',  #89 ) ;
#179 = PERSON_AND_ORGANIZATION ( #213, #270 ) ;
#180 = ORIENTED_EDGE ( 'NONE', *, *, #232, .F. ) ;
#181 = VECTOR ( 'NONE', #115, 1000.000000000000000 ) ;
#182 = EDGE_LOOP ( 'NONE', ( #212, #119, #253, #141 ) ) ;
#183 = PERSON_AND_ORGANIZATION ( #213, #270 ) ;
#184 = APPLICATION_PROTOCOL_DEFINITION ( 'international standard', 'config_control_design', 1994, #2 ) ;
#185 = DIRECTION ( 'NONE',  ( -0.0000000000000000000, -1.000000000000000000, -0.0000000000000000000 ) ) ;
#186 = PERSON_AND_ORGANIZATION ( #213, #270 ) ;
#187 = VECTOR ( 'NONE', #271, 1000.000000000000000 ) ;
#188 = APPROVAL ( #23, 'UNSPECIFIED' ) ;
#189 = EDGE_LOOP ( 'NONE', ( #122, #108, #238, #195 ) ) ;
#190 = EDGE_CURVE ( 'NONE', #206, #202, #6, .T. ) ;
#191 = VECTOR ( 'NONE', #201, 1000.000000000000000 ) ;
#192 = ORIENTED_EDGE ( 'NONE', *, *, #315, .F. ) ;
#193 = ADVANCED_FACE ( 'NONE', ( #71 ), #64, .F. ) ;
#194 = EDGE_CURVE ( 'NONE', #200, #8, #54, .T. ) ;
#195 = ORIENTED_EDGE ( 'NONE', *, *, #300, .F. ) ;
#196 = COORDINATED_UNIVERSAL_TIME_OFFSET ( 1, 0, .AHEAD. ) ;
#197 = CARTESIAN_POINT ( 'NONE',  ( 0.0000000000000000000, 0.0000000000000000000, 0.0000000000000000000 ) ) ;
#198 = CARTESIAN_POINT ( 'NONE',  ( 40.00000000000000000, 40.00000000000000000, -63.00100000000000500 ) ) ;
#199 = CARTESIAN_POINT ( 'NONE',  ( 0.0000000000000000000, 0.0000000000000000000, 0.0000000000000000000 ) ) ;
#200 = VERTEX_POINT ( 'NONE', #358 ) ;
#201 = DIRECTION ( 'NONE',  ( -1.000000000000000000, -0.0000000000000000000, -0.0000000000000000000 ) ) ;
#202 = VERTEX_POINT ( 'NONE', #204 ) ;
#203 = FACE_OUTER_BOUND ( 'NONE', #301, .T. ) ;
#204 = CARTESIAN_POINT ( 'NONE',  ( 40.00000000000000000, 40.00000000000000000, 0.0000000000000000000 ) ) ;
#205 = VERTEX_POINT ( 'NONE', #36 ) ;
#206 = VERTEX_POINT ( 'NONE', #230 ) ;
#207 = AXIS2_PLACEMENT_3D ( 'NONE', #99, #139, #351 ) ;
#208 = VERTEX_POINT ( 'NONE', #210 ) ;
#209 = DIRECTION ( 'NONE',  ( 0.0000000000000000000, 0.0000000000000000000, 1.000000000000000000 ) ) ;
#210 = CARTESIAN_POINT ( 'NONE',  ( 0.0000000000000000000, 50.00000000000000000, -63.00000000000000000 ) ) ;
#211 = CC_DESIGN_APPROVAL ( #188, ( #164 ) ) ;
#212 = ORIENTED_EDGE ( 'NONE', *, *, #361, .T. ) ;
#213 = PERSON ( 'UNSPECIFIED', 'UNSPECIFIED', 'UNSPECIFIED', ('UNSPECIFIED'), ('UNSPECIFIED'), ('UNSPECIFIED') ) ;
#214 = EDGE_CURVE ( 'NONE', #322, #242, #273, .T. ) ;
#215 = EDGE_CURVE ( 'NONE', #62, #250, #127, .T. ) ;
#216 = EDGE_LOOP ( 'NONE', ( #58, #138, #28, #241, #134, #161, #69, #74 ) ) ;
#217 = CARTESIAN_POINT ( 'NONE',  ( 0.0000000000000000000, 0.0000000000000000000, -63.00000000000000000 ) ) ;
#218 =( NAMED_UNIT ( * ) PLANE_ANGLE_UNIT ( ) SI_UNIT ( $, .RADIAN. ) );
#219 = APPROVAL_ROLE ( '' ) ;
#220 = DIRECTION ( 'NONE',  ( 0.0000000000000000000, 1.000000000000000000, 0.0000000000000000000 ) ) ;
#221 = LINE ( 'NONE', #199, #296 ) ;
#222 = VECTOR ( 'NONE', #101, 1000.000000000000000 ) ;
#223 = ORIENTED_EDGE ( 'NONE', *, *, #336, .F. ) ;
#224 = DATE_AND_TIME ( #309, #15 ) ;
#225 = ADVANCED_FACE ( 'NONE', ( #44 ), #302, .T. ) ;
#226 = ADVANCED_FACE ( 'NONE', ( #260 ), #149, .F. ) ;
#227 = DIRECTION ( 'NONE',  ( 0.0000000000000000000, -0.0000000000000000000, -1.000000000000000000 ) ) ;
#228 = DIRECTION ( 'NONE',  ( -1.000000000000000000, 0.0000000000000000000, 0.0000000000000000000 ) ) ;
#229 = CC_DESIGN_PERSON_AND_ORGANIZATION_ASSIGNMENT ( #186, #52, ( #164 ) ) ;
#230 = CARTESIAN_POINT ( 'NONE',  ( 40.00000000000000000, 40.00000000000000000, -63.00000000000000000 ) ) ;
#231 = PERSON_AND_ORGANIZATION ( #213, #270 ) ;
#232 = EDGE_CURVE ( 'NONE', #208, #7, #32, .T. ) ;
#233 = CARTESIAN_POINT ( 'NONE',  ( 48.00000000000000000, 50.00000000000000000, -63.00000000000000000 ) ) ;
#234 = EDGE_CURVE ( 'NONE', #205, #206, #176, .T. ) ;
#235 = CARTESIAN_POINT ( 'NONE',  ( 8.000000000000000000, 0.0000000000000000000, -63.00100000000000500 ) ) ;
#236 = ADVANCED_BREP_SHAPE_REPRESENTATION ( 'Support', ( #312, #133 ), #43 ) ;
#237 = LINE ( 'NONE', #337, #158 ) ;
#238 = ORIENTED_EDGE ( 'NONE', *, *, #251, .T. ) ;
#239 = CC_DESIGN_SECURITY_CLASSIFICATION ( #285, ( #274 ) ) ;
#240 = CC_DESIGN_PERSON_AND_ORGANIZATION_ASSIGNMENT ( #341, #83, ( #274 ) ) ;
#241 = ORIENTED_EDGE ( 'NONE', *, *, #299, .F. ) ;
#242 = VERTEX_POINT ( 'NONE', #246 ) ;
#243 = CALENDAR_DATE ( 2019, 29, 1 ) ;
#244 = AXIS2_PLACEMENT_3D ( 'NONE', #86, #298, #120 ) ;
#245 = DATE_TIME_ROLE ( 'creation_date' ) ;
#246 = CARTESIAN_POINT ( 'NONE',  ( 48.00000000000000000, 50.00000000000000000, 0.0000000000000000000 ) ) ;
#247 = FACE_OUTER_BOUND ( 'NONE', #331, .T. ) ;
#248 = CC_DESIGN_DATE_AND_TIME_ASSIGNMENT ( #256, #245, ( #164 ) ) ;
#249 = VECTOR ( 'NONE', #220, 1000.000000000000000 ) ;
#250 = VERTEX_POINT ( 'NONE', #53 ) ;
#251 = EDGE_CURVE ( 'NONE', #277, #322, #27, .T. ) ;
#252 = CARTESIAN_POINT ( 'NONE',  ( 48.00000000000000000, 0.0000000000000000000, -63.00000000000000000 ) ) ;
#253 = ORIENTED_EDGE ( 'NONE', *, *, #190, .F. ) ;
#254 = EDGE_CURVE ( 'NONE', #8, #250, #339, .T. ) ;
#255 = VECTOR ( 'NONE', #324, 1000.000000000000000 ) ;
#256 = DATE_AND_TIME ( #335, #38 ) ;
#257 = ADVANCED_FACE ( 'NONE', ( #203 ), #106, .T. ) ;
#258 = CARTESIAN_POINT ( 'NONE',  ( 0.0000000000000000000, 0.0000000000000000000, -63.00000000000000000 ) ) ;
#259 = CARTESIAN_POINT ( 'NONE',  ( 40.00000000000000000, 0.0000000000000000000, 0.0000000000000000000 ) ) ;
#260 = FACE_OUTER_BOUND ( 'NONE', #344, .T. ) ;
#261 = APPROVAL_ROLE ( '' ) ;
#262 = CARTESIAN_POINT ( 'NONE',  ( 0.0000000000000000000, 0.0000000000000000000, 0.0000000000000000000 ) ) ;
#263 = PRODUCT_RELATED_PRODUCT_CATEGORY ( 'detail', '', ( #177 ) ) ;
#264 = CC_DESIGN_PERSON_AND_ORGANIZATION_ASSIGNMENT ( #265, #294, ( #274 ) ) ;
#265 = PERSON_AND_ORGANIZATION ( #213, #270 ) ;
#266 = ORIENTED_EDGE ( 'NONE', *, *, #95, .F. ) ;
#267 = DIRECTION ( 'NONE',  ( 0.0000000000000000000, 0.0000000000000000000, 1.000000000000000000 ) ) ;
#268 = LINE ( 'NONE', #297, #255 ) ;
#269 = ORIENTED_EDGE ( 'NONE', *, *, #190, .T. ) ;
#270 = ORGANIZATION ( 'UNSPECIFIED', 'UNSPECIFIED', '' ) ;
#271 = DIRECTION ( 'NONE',  ( 0.0000000000000000000, 1.000000000000000000, 0.0000000000000000000 ) ) ;
#272 = APPROVAL_DATE_TIME ( #349, #188 ) ;
#273 = LINE ( 'NONE', #68, #187 ) ;
#274 = PRODUCT_DEFINITION_FORMATION_WITH_SPECIFIED_SOURCE ( 'ANY', '', #177, .NOT_KNOWN. ) ;
#275 = PLANE ( 'NONE',  #40 ) ;
#276 = ORIENTED_EDGE ( 'NONE', *, *, #232, .T. ) ;
#277 = VERTEX_POINT ( 'NONE', #252 ) ;
#278 = LINE ( 'NONE', #287, #191 ) ;
#279 = EDGE_CURVE ( 'NONE', #88, #208, #278, .T. ) ;
#280 = ORIENTED_EDGE ( 'NONE', *, *, #317, .T. ) ;
#281 = EDGE_CURVE ( 'NONE', #130, #250, #57, .T. ) ;
#282 = DIRECTION ( 'NONE',  ( 0.0000000000000000000, 0.0000000000000000000, 1.000000000000000000 ) ) ;
#283 = APPROVAL_PERSON_ORGANIZATION ( #109, #188, #219 ) ;
#284 = ORIENTED_EDGE ( 'NONE', *, *, #315, .T. ) ;
#285 = SECURITY_CLASSIFICATION ( '', '', #114 ) ;
#286 = ORIENTED_EDGE ( 'NONE', *, *, #194, .T. ) ;
#287 = CARTESIAN_POINT ( 'NONE',  ( 0.0000000000000000000, 50.00000000000000000, -63.00000000000000000 ) ) ;
#288 = EDGE_LOOP ( 'NONE', ( #269, #20, #67, #342 ) ) ;
#289 = ORIENTED_EDGE ( 'NONE', *, *, #214, .F. ) ;
#290 = CARTESIAN_POINT ( 'NONE',  ( 0.0000000000000000000, 0.0000000000000000000, -63.00000000000000000 ) ) ;
#291 = AXIS2_PLACEMENT_3D ( 'NONE', #330, #124, #328 ) ;
#292 = ORIENTED_EDGE ( 'NONE', *, *, #172, .F. ) ;
#293 = APPROVAL ( #173, 'UNSPECIFIED' ) ;
#294 = PERSON_AND_ORGANIZATION_ROLE ( 'design_supplier' ) ;
#295 = CARTESIAN_POINT ( 'NONE',  ( 40.00000000000000000, 0.0000000000000000000, -63.00100000000000500 ) ) ;
#296 = VECTOR ( 'NONE', #42, 1000.000000000000000 ) ;
#297 = CARTESIAN_POINT ( 'NONE',  ( 0.0000000000000000000, 50.00000000000000000, -63.00000000000000000 ) ) ;
#298 = DIRECTION ( 'NONE',  ( -0.0000000000000000000, 1.000000000000000000, 0.0000000000000000000 ) ) ;
#299 = EDGE_CURVE ( 'NONE', #159, #202, #121, .T. ) ;
#300 = EDGE_CURVE ( 'NONE', #159, #322, #47, .T. ) ;
#301 = EDGE_LOOP ( 'NONE', ( #289, #167, #284, #48 ) ) ;
#302 = PLANE ( 'NONE',  #291 ) ;
#303 = DIRECTION ( 'NONE',  ( 0.0000000000000000000, 0.0000000000000000000, -1.000000000000000000 ) ) ;
#304 = CARTESIAN_POINT ( 'NONE',  ( 0.0000000000000000000, 50.00000000000000000, 0.0000000000000000000 ) ) ;
#305 = FACE_OUTER_BOUND ( 'NONE', #189, .T. ) ;
#306 = VECTOR ( 'NONE', #142, 1000.000000000000000 ) ;
#307 = CLOSED_SHELL ( 'NONE', ( #225, #77, #137, #257, #9, #103, #347, #226, #193, #110 ) ) ;
#308 = CC_DESIGN_PERSON_AND_ORGANIZATION_ASSIGNMENT ( #179, #321, ( #285 ) ) ;
#309 = CALENDAR_DATE ( 2019, 29, 1 ) ;
#310 = DIRECTION ( 'NONE',  ( 0.0000000000000000000, 0.0000000000000000000, 1.000000000000000000 ) ) ;
#311 = CARTESIAN_POINT ( 'NONE',  ( 8.000000000000000000, 0.0000000000000000000, 0.0000000000000000000 ) ) ;
#312 = MANIFOLD_SOLID_BREP ( 'Enlèv. mat.-Extru.1', #307 ) ;
#313 = CC_DESIGN_APPROVAL ( #293, ( #274 ) ) ;
#314 = DATE_AND_TIME ( #332, #34 ) ;
#315 = EDGE_CURVE ( 'NONE', #277, #88, #357, .T. ) ;
#316 = CARTESIAN_POINT ( 'NONE',  ( 48.00000000000000000, 0.0000000000000000000, -63.00000000000000000 ) ) ;
#317 = EDGE_CURVE ( 'NONE', #208, #29, #268, .T. ) ;
#318 = DIRECTION ( 'NONE',  ( -1.000000000000000000, 0.0000000000000000000, -0.0000000000000000000 ) ) ;
#319 = LINE ( 'NONE', #11, #82 ) ;
#320 = CARTESIAN_POINT ( 'NONE',  ( 0.0000000000000000000, 0.0000000000000000000, -63.00000000000000000 ) ) ;
#321 = PERSON_AND_ORGANIZATION_ROLE ( 'classification_officer' ) ;
#322 = VERTEX_POINT ( 'NONE', #118 ) ;
#323 = CC_DESIGN_DATE_AND_TIME_ASSIGNMENT ( #314, #143, ( #285 ) ) ;
#324 = DIRECTION ( 'NONE',  ( 0.0000000000000000000, 0.0000000000000000000, 1.000000000000000000 ) ) ;
#325 = DIRECTION ( 'NONE',  ( -1.000000000000000000, 0.0000000000000000000, -0.0000000000000000000 ) ) ;
#326 = ORIENTED_EDGE ( 'NONE', *, *, #254, .F. ) ;
#327 = LOCAL_TIME ( 22, 8, 38.00000000000000000, #30 ) ;
#328 = DIRECTION ( 'NONE',  ( 0.0000000000000000000, -0.0000000000000000000, -1.000000000000000000 ) ) ;
#329 = AXIS2_PLACEMENT_3D ( 'NONE', #362, #17, #209 ) ;
#330 = CARTESIAN_POINT ( 'NONE',  ( 0.0000000000000000000, 0.0000000000000000000, -63.00000000000000000 ) ) ;
#331 = EDGE_LOOP ( 'NONE', ( #56, #223, #105, #280 ) ) ;
#332 = CALENDAR_DATE ( 2019, 29, 1 ) ;
#333 = EDGE_CURVE ( 'NONE', #242, #29, #107, .T. ) ;
#334 = LINE ( 'NONE', #233, #97 ) ;
#335 = CALENDAR_DATE ( 2019, 29, 1 ) ;
#336 = EDGE_CURVE ( 'NONE', #88, #242, #334, .T. ) ;
#337 = CARTESIAN_POINT ( 'NONE',  ( 0.0000000000000000000, 0.0000000000000000000, -63.00000000000000000 ) ) ;
#338 = MECHANICAL_CONTEXT ( 'NONE', #100, 'mechanical' ) ;
#339 = LINE ( 'NONE', #235, #166 ) ;
#340 = APPROVAL ( #356, 'UNSPECIFIED' ) ;
#341 = PERSON_AND_ORGANIZATION ( #213, #270 ) ;
#342 = ORIENTED_EDGE ( 'NONE', *, *, #155, .F. ) ;
#343 = VECTOR ( 'NONE', #65, 1000.000000000000000 ) ;
#344 = EDGE_LOOP ( 'NONE', ( #128, #96, #326, #369 ) ) ;
#345 = SHAPE_DEFINITION_REPRESENTATION ( #350, #236 ) ;
#346 = DIRECTION ( 'NONE',  ( 0.0000000000000000000, 0.0000000000000000000, -1.000000000000000000 ) ) ;
#347 = ADVANCED_FACE ( 'NONE', ( #174 ), #66, .F. ) ;
#348 = DIRECTION ( 'NONE',  ( 0.0000000000000000000, -1.000000000000000000, 0.0000000000000000000 ) ) ;
#349 = DATE_AND_TIME ( #51, #126 ) ;
#350 = PRODUCT_DEFINITION_SHAPE ( 'NONE', 'NONE',  #164 ) ;
#351 = DIRECTION ( 'NONE',  ( 0.0000000000000000000, -0.0000000000000000000, 1.000000000000000000 ) ) ;
#352 = VECTOR ( 'NONE', #16, 1000.000000000000000 ) ;
#353 = DIRECTION ( 'NONE',  ( 0.0000000000000000000, 0.0000000000000000000, 1.000000000000000000 ) ) ;
#354 = ORIENTED_EDGE ( 'NONE', *, *, #135, .T. ) ;
#355 = DIRECTION ( 'NONE',  ( 1.000000000000000000, 0.0000000000000000000, 0.0000000000000000000 ) ) ;
#356 = APPROVAL_STATUS ( 'not_yet_approved' ) ;
#357 = LINE ( 'NONE', #160, #37 ) ;
#358 = CARTESIAN_POINT ( 'NONE',  ( 8.000000000000000000, 40.00000000000000000, -63.00000000000000000 ) ) ;
#359 = ORIENTED_EDGE ( 'NONE', *, *, #215, .F. ) ;
#360 = CARTESIAN_POINT ( 'NONE',  ( 40.00000000000000000, 0.0000000000000000000, -63.00100000000000500 ) ) ;
#361 = EDGE_CURVE ( 'NONE', #205, #159, #91, .T. ) ;
#362 = CARTESIAN_POINT ( 'NONE',  ( 8.000000000000000000, 0.0000000000000000000, -63.00100000000000500 ) ) ;
#363 = ORIENTED_EDGE ( 'NONE', *, *, #135, .F. ) ;
#364 = EDGE_LOOP ( 'NONE', ( #367, #359, #363, #4 ) ) ;
#365 = EDGE_LOOP ( 'NONE', ( #286, #292, #180, #39, #192, #14, #94, #61 ) ) ;
#366 = CC_DESIGN_APPROVAL ( #340, ( #285 ) ) ;
#367 = ORIENTED_EDGE ( 'NONE', *, *, #254, .T. ) ;
#368 = CARTESIAN_POINT ( 'NONE',  ( 8.000000000000000000, 40.00000000000000000, 0.0000000000000000000 ) ) ;
#369 = ORIENTED_EDGE ( 'NONE', *, *, #194, .F. ) ;
ENDSEC;
END-ISO-10303-21;
