ISO-10303-21;
HEADER;
/* Generated by software containing ST-Developer
 * from STEP Tools, Inc. (www.steptools.com) 
 */

FILE_DESCRIPTION(
/* description */ (''),
/* implementation_level */ '2;1');

FILE_NAME(
/* name */ 
'C:\\Users\\Yann\\Desktop\\ConcordeScaledLandingGearTorqueLink.stp',
/* time_stamp */ '2019-01-21T20:09:09+01:00',
/* author */ ('Yann'),
/* organization */ (''),
/* preprocessor_version */ 'ST-DEVELOPER v17',
/* originating_system */ 'Autodesk Inventor 2019',
/* authorisation */ '');

FILE_SCHEMA (('AUTOMOTIVE_DESIGN { 1 0 10303 214 3 1 1 }'));
ENDSEC;

DATA;
#10=MECHANICAL_DESIGN_GEOMETRIC_PRESENTATION_REPRESENTATION('',(#13),#570);
#11=SHAPE_REPRESENTATION_RELATIONSHIP('SRR','None',#577,#12);
#12=ADVANCED_BREP_SHAPE_REPRESENTATION('',(#14),#569);
#13=STYLED_ITEM('',(#586),#14);
#14=MANIFOLD_SOLID_BREP('Solid1',#344);
#15=FACE_BOUND('',#56,.T.);
#16=FACE_BOUND('',#59,.T.);
#17=FACE_BOUND('',#62,.T.);
#18=FACE_BOUND('',#65,.T.);
#19=FACE_BOUND('',#68,.T.);
#20=FACE_BOUND('',#71,.T.);
#21=PLANE('',#373);
#22=PLANE('',#374);
#23=PLANE('',#375);
#24=PLANE('',#376);
#25=PLANE('',#377);
#26=PLANE('',#378);
#27=PLANE('',#379);
#28=PLANE('',#380);
#29=PLANE('',#381);
#30=PLANE('',#382);
#31=PLANE('',#383);
#32=PLANE('',#384);
#33=PLANE('',#385);
#34=PLANE('',#386);
#35=FACE_OUTER_BOUND('',#52,.T.);
#36=FACE_OUTER_BOUND('',#53,.T.);
#37=FACE_OUTER_BOUND('',#54,.T.);
#38=FACE_OUTER_BOUND('',#55,.T.);
#39=FACE_OUTER_BOUND('',#57,.T.);
#40=FACE_OUTER_BOUND('',#58,.T.);
#41=FACE_OUTER_BOUND('',#60,.T.);
#42=FACE_OUTER_BOUND('',#61,.T.);
#43=FACE_OUTER_BOUND('',#63,.T.);
#44=FACE_OUTER_BOUND('',#64,.T.);
#45=FACE_OUTER_BOUND('',#66,.T.);
#46=FACE_OUTER_BOUND('',#67,.T.);
#47=FACE_OUTER_BOUND('',#69,.T.);
#48=FACE_OUTER_BOUND('',#70,.T.);
#49=FACE_OUTER_BOUND('',#72,.T.);
#50=FACE_OUTER_BOUND('',#73,.T.);
#51=FACE_OUTER_BOUND('',#74,.T.);
#52=EDGE_LOOP('',(#234,#235,#236,#237));
#53=EDGE_LOOP('',(#238,#239,#240,#241));
#54=EDGE_LOOP('',(#242,#243,#244,#245));
#55=EDGE_LOOP('',(#246,#247,#248,#249));
#56=EDGE_LOOP('',(#250));
#57=EDGE_LOOP('',(#251,#252,#253,#254));
#58=EDGE_LOOP('',(#255,#256,#257,#258));
#59=EDGE_LOOP('',(#259));
#60=EDGE_LOOP('',(#260,#261,#262,#263));
#61=EDGE_LOOP('',(#264,#265,#266,#267));
#62=EDGE_LOOP('',(#268));
#63=EDGE_LOOP('',(#269,#270,#271,#272));
#64=EDGE_LOOP('',(#273,#274,#275,#276));
#65=EDGE_LOOP('',(#277));
#66=EDGE_LOOP('',(#278,#279,#280,#281));
#67=EDGE_LOOP('',(#282,#283,#284,#285));
#68=EDGE_LOOP('',(#286));
#69=EDGE_LOOP('',(#287,#288,#289,#290));
#70=EDGE_LOOP('',(#291,#292,#293,#294));
#71=EDGE_LOOP('',(#295));
#72=EDGE_LOOP('',(#296,#297,#298,#299));
#73=EDGE_LOOP('',(#300,#301,#302,#303,#304,#305,#306,#307,#308,#309,#310,
#311));
#74=EDGE_LOOP('',(#312,#313,#314,#315,#316,#317,#318,#319,#320,#321,#322,
#323));
#75=LINE('',#479,#114);
#76=LINE('',#485,#115);
#77=LINE('',#491,#116);
#78=LINE('',#496,#117);
#79=LINE('',#498,#118);
#80=LINE('',#500,#119);
#81=LINE('',#501,#120);
#82=LINE('',#504,#121);
#83=LINE('',#506,#122);
#84=LINE('',#507,#123);
#85=LINE('',#510,#124);
#86=LINE('',#512,#125);
#87=LINE('',#513,#126);
#88=LINE('',#516,#127);
#89=LINE('',#518,#128);
#90=LINE('',#519,#129);
#91=LINE('',#522,#130);
#92=LINE('',#524,#131);
#93=LINE('',#525,#132);
#94=LINE('',#528,#133);
#95=LINE('',#530,#134);
#96=LINE('',#531,#135);
#97=LINE('',#534,#136);
#98=LINE('',#536,#137);
#99=LINE('',#537,#138);
#100=LINE('',#540,#139);
#101=LINE('',#542,#140);
#102=LINE('',#543,#141);
#103=LINE('',#546,#142);
#104=LINE('',#548,#143);
#105=LINE('',#549,#144);
#106=LINE('',#552,#145);
#107=LINE('',#554,#146);
#108=LINE('',#555,#147);
#109=LINE('',#558,#148);
#110=LINE('',#560,#149);
#111=LINE('',#561,#150);
#112=LINE('',#563,#151);
#113=LINE('',#564,#152);
#114=VECTOR('',#393,1.);
#115=VECTOR('',#400,1.);
#116=VECTOR('',#407,1.);
#117=VECTOR('',#412,10.);
#118=VECTOR('',#413,10.);
#119=VECTOR('',#414,10.);
#120=VECTOR('',#415,10.);
#121=VECTOR('',#418,10.);
#122=VECTOR('',#419,10.);
#123=VECTOR('',#420,10.);
#124=VECTOR('',#423,10.);
#125=VECTOR('',#424,10.);
#126=VECTOR('',#425,10.);
#127=VECTOR('',#428,10.);
#128=VECTOR('',#429,10.);
#129=VECTOR('',#430,10.);
#130=VECTOR('',#433,10.);
#131=VECTOR('',#434,10.);
#132=VECTOR('',#435,10.);
#133=VECTOR('',#438,10.);
#134=VECTOR('',#439,10.);
#135=VECTOR('',#440,10.);
#136=VECTOR('',#443,10.);
#137=VECTOR('',#444,10.);
#138=VECTOR('',#445,10.);
#139=VECTOR('',#448,10.);
#140=VECTOR('',#449,10.);
#141=VECTOR('',#450,10.);
#142=VECTOR('',#453,10.);
#143=VECTOR('',#454,10.);
#144=VECTOR('',#455,10.);
#145=VECTOR('',#458,10.);
#146=VECTOR('',#459,10.);
#147=VECTOR('',#460,10.);
#148=VECTOR('',#463,10.);
#149=VECTOR('',#464,10.);
#150=VECTOR('',#465,10.);
#151=VECTOR('',#468,10.);
#152=VECTOR('',#469,10.);
#153=CIRCLE('',#365,1.);
#154=CIRCLE('',#366,1.);
#155=CIRCLE('',#368,1.);
#156=CIRCLE('',#369,1.);
#157=CIRCLE('',#371,1.);
#158=CIRCLE('',#372,1.);
#159=VERTEX_POINT('',#476);
#160=VERTEX_POINT('',#478);
#161=VERTEX_POINT('',#482);
#162=VERTEX_POINT('',#484);
#163=VERTEX_POINT('',#488);
#164=VERTEX_POINT('',#490);
#165=VERTEX_POINT('',#494);
#166=VERTEX_POINT('',#495);
#167=VERTEX_POINT('',#497);
#168=VERTEX_POINT('',#499);
#169=VERTEX_POINT('',#503);
#170=VERTEX_POINT('',#505);
#171=VERTEX_POINT('',#509);
#172=VERTEX_POINT('',#511);
#173=VERTEX_POINT('',#515);
#174=VERTEX_POINT('',#517);
#175=VERTEX_POINT('',#521);
#176=VERTEX_POINT('',#523);
#177=VERTEX_POINT('',#527);
#178=VERTEX_POINT('',#529);
#179=VERTEX_POINT('',#533);
#180=VERTEX_POINT('',#535);
#181=VERTEX_POINT('',#539);
#182=VERTEX_POINT('',#541);
#183=VERTEX_POINT('',#545);
#184=VERTEX_POINT('',#547);
#185=VERTEX_POINT('',#551);
#186=VERTEX_POINT('',#553);
#187=VERTEX_POINT('',#557);
#188=VERTEX_POINT('',#559);
#189=EDGE_CURVE('',#159,#159,#153,.T.);
#190=EDGE_CURVE('',#159,#160,#75,.T.);
#191=EDGE_CURVE('',#160,#160,#154,.T.);
#192=EDGE_CURVE('',#161,#161,#155,.T.);
#193=EDGE_CURVE('',#161,#162,#76,.T.);
#194=EDGE_CURVE('',#162,#162,#156,.T.);
#195=EDGE_CURVE('',#163,#163,#157,.T.);
#196=EDGE_CURVE('',#163,#164,#77,.T.);
#197=EDGE_CURVE('',#164,#164,#158,.T.);
#198=EDGE_CURVE('',#165,#166,#78,.T.);
#199=EDGE_CURVE('',#166,#167,#79,.T.);
#200=EDGE_CURVE('',#168,#167,#80,.T.);
#201=EDGE_CURVE('',#165,#168,#81,.T.);
#202=EDGE_CURVE('',#169,#165,#82,.T.);
#203=EDGE_CURVE('',#170,#168,#83,.T.);
#204=EDGE_CURVE('',#169,#170,#84,.T.);
#205=EDGE_CURVE('',#171,#169,#85,.T.);
#206=EDGE_CURVE('',#172,#170,#86,.T.);
#207=EDGE_CURVE('',#171,#172,#87,.T.);
#208=EDGE_CURVE('',#173,#171,#88,.T.);
#209=EDGE_CURVE('',#174,#172,#89,.T.);
#210=EDGE_CURVE('',#173,#174,#90,.T.);
#211=EDGE_CURVE('',#175,#173,#91,.T.);
#212=EDGE_CURVE('',#176,#174,#92,.T.);
#213=EDGE_CURVE('',#175,#176,#93,.T.);
#214=EDGE_CURVE('',#177,#175,#94,.T.);
#215=EDGE_CURVE('',#178,#176,#95,.T.);
#216=EDGE_CURVE('',#177,#178,#96,.T.);
#217=EDGE_CURVE('',#179,#177,#97,.T.);
#218=EDGE_CURVE('',#180,#178,#98,.T.);
#219=EDGE_CURVE('',#179,#180,#99,.T.);
#220=EDGE_CURVE('',#181,#179,#100,.T.);
#221=EDGE_CURVE('',#182,#180,#101,.T.);
#222=EDGE_CURVE('',#181,#182,#102,.T.);
#223=EDGE_CURVE('',#183,#181,#103,.T.);
#224=EDGE_CURVE('',#184,#182,#104,.T.);
#225=EDGE_CURVE('',#183,#184,#105,.T.);
#226=EDGE_CURVE('',#185,#183,#106,.T.);
#227=EDGE_CURVE('',#186,#184,#107,.T.);
#228=EDGE_CURVE('',#185,#186,#108,.T.);
#229=EDGE_CURVE('',#187,#185,#109,.T.);
#230=EDGE_CURVE('',#188,#186,#110,.T.);
#231=EDGE_CURVE('',#187,#188,#111,.T.);
#232=EDGE_CURVE('',#166,#187,#112,.T.);
#233=EDGE_CURVE('',#167,#188,#113,.T.);
#234=ORIENTED_EDGE('',*,*,#189,.F.);
#235=ORIENTED_EDGE('',*,*,#190,.T.);
#236=ORIENTED_EDGE('',*,*,#191,.F.);
#237=ORIENTED_EDGE('',*,*,#190,.F.);
#238=ORIENTED_EDGE('',*,*,#192,.F.);
#239=ORIENTED_EDGE('',*,*,#193,.T.);
#240=ORIENTED_EDGE('',*,*,#194,.F.);
#241=ORIENTED_EDGE('',*,*,#193,.F.);
#242=ORIENTED_EDGE('',*,*,#195,.F.);
#243=ORIENTED_EDGE('',*,*,#196,.T.);
#244=ORIENTED_EDGE('',*,*,#197,.F.);
#245=ORIENTED_EDGE('',*,*,#196,.F.);
#246=ORIENTED_EDGE('',*,*,#198,.T.);
#247=ORIENTED_EDGE('',*,*,#199,.T.);
#248=ORIENTED_EDGE('',*,*,#200,.F.);
#249=ORIENTED_EDGE('',*,*,#201,.F.);
#250=ORIENTED_EDGE('',*,*,#192,.T.);
#251=ORIENTED_EDGE('',*,*,#202,.T.);
#252=ORIENTED_EDGE('',*,*,#201,.T.);
#253=ORIENTED_EDGE('',*,*,#203,.F.);
#254=ORIENTED_EDGE('',*,*,#204,.F.);
#255=ORIENTED_EDGE('',*,*,#205,.T.);
#256=ORIENTED_EDGE('',*,*,#204,.T.);
#257=ORIENTED_EDGE('',*,*,#206,.F.);
#258=ORIENTED_EDGE('',*,*,#207,.F.);
#259=ORIENTED_EDGE('',*,*,#194,.T.);
#260=ORIENTED_EDGE('',*,*,#208,.T.);
#261=ORIENTED_EDGE('',*,*,#207,.T.);
#262=ORIENTED_EDGE('',*,*,#209,.F.);
#263=ORIENTED_EDGE('',*,*,#210,.F.);
#264=ORIENTED_EDGE('',*,*,#211,.T.);
#265=ORIENTED_EDGE('',*,*,#210,.T.);
#266=ORIENTED_EDGE('',*,*,#212,.F.);
#267=ORIENTED_EDGE('',*,*,#213,.F.);
#268=ORIENTED_EDGE('',*,*,#197,.T.);
#269=ORIENTED_EDGE('',*,*,#214,.T.);
#270=ORIENTED_EDGE('',*,*,#213,.T.);
#271=ORIENTED_EDGE('',*,*,#215,.F.);
#272=ORIENTED_EDGE('',*,*,#216,.F.);
#273=ORIENTED_EDGE('',*,*,#217,.T.);
#274=ORIENTED_EDGE('',*,*,#216,.T.);
#275=ORIENTED_EDGE('',*,*,#218,.F.);
#276=ORIENTED_EDGE('',*,*,#219,.F.);
#277=ORIENTED_EDGE('',*,*,#195,.T.);
#278=ORIENTED_EDGE('',*,*,#220,.T.);
#279=ORIENTED_EDGE('',*,*,#219,.T.);
#280=ORIENTED_EDGE('',*,*,#221,.F.);
#281=ORIENTED_EDGE('',*,*,#222,.F.);
#282=ORIENTED_EDGE('',*,*,#223,.T.);
#283=ORIENTED_EDGE('',*,*,#222,.T.);
#284=ORIENTED_EDGE('',*,*,#224,.F.);
#285=ORIENTED_EDGE('',*,*,#225,.F.);
#286=ORIENTED_EDGE('',*,*,#189,.T.);
#287=ORIENTED_EDGE('',*,*,#226,.T.);
#288=ORIENTED_EDGE('',*,*,#225,.T.);
#289=ORIENTED_EDGE('',*,*,#227,.F.);
#290=ORIENTED_EDGE('',*,*,#228,.F.);
#291=ORIENTED_EDGE('',*,*,#229,.T.);
#292=ORIENTED_EDGE('',*,*,#228,.T.);
#293=ORIENTED_EDGE('',*,*,#230,.F.);
#294=ORIENTED_EDGE('',*,*,#231,.F.);
#295=ORIENTED_EDGE('',*,*,#191,.T.);
#296=ORIENTED_EDGE('',*,*,#232,.T.);
#297=ORIENTED_EDGE('',*,*,#231,.T.);
#298=ORIENTED_EDGE('',*,*,#233,.F.);
#299=ORIENTED_EDGE('',*,*,#199,.F.);
#300=ORIENTED_EDGE('',*,*,#233,.T.);
#301=ORIENTED_EDGE('',*,*,#230,.T.);
#302=ORIENTED_EDGE('',*,*,#227,.T.);
#303=ORIENTED_EDGE('',*,*,#224,.T.);
#304=ORIENTED_EDGE('',*,*,#221,.T.);
#305=ORIENTED_EDGE('',*,*,#218,.T.);
#306=ORIENTED_EDGE('',*,*,#215,.T.);
#307=ORIENTED_EDGE('',*,*,#212,.T.);
#308=ORIENTED_EDGE('',*,*,#209,.T.);
#309=ORIENTED_EDGE('',*,*,#206,.T.);
#310=ORIENTED_EDGE('',*,*,#203,.T.);
#311=ORIENTED_EDGE('',*,*,#200,.T.);
#312=ORIENTED_EDGE('',*,*,#214,.F.);
#313=ORIENTED_EDGE('',*,*,#217,.F.);
#314=ORIENTED_EDGE('',*,*,#220,.F.);
#315=ORIENTED_EDGE('',*,*,#223,.F.);
#316=ORIENTED_EDGE('',*,*,#226,.F.);
#317=ORIENTED_EDGE('',*,*,#229,.F.);
#318=ORIENTED_EDGE('',*,*,#232,.F.);
#319=ORIENTED_EDGE('',*,*,#198,.F.);
#320=ORIENTED_EDGE('',*,*,#202,.F.);
#321=ORIENTED_EDGE('',*,*,#205,.F.);
#322=ORIENTED_EDGE('',*,*,#208,.F.);
#323=ORIENTED_EDGE('',*,*,#211,.F.);
#324=CYLINDRICAL_SURFACE('',#364,1.);
#325=CYLINDRICAL_SURFACE('',#367,1.);
#326=CYLINDRICAL_SURFACE('',#370,1.);
#327=ADVANCED_FACE('',(#35),#324,.F.);
#328=ADVANCED_FACE('',(#36),#325,.F.);
#329=ADVANCED_FACE('',(#37),#326,.F.);
#330=ADVANCED_FACE('',(#38,#15),#21,.T.);
#331=ADVANCED_FACE('',(#39),#22,.T.);
#332=ADVANCED_FACE('',(#40,#16),#23,.T.);
#333=ADVANCED_FACE('',(#41),#24,.T.);
#334=ADVANCED_FACE('',(#42,#17),#25,.T.);
#335=ADVANCED_FACE('',(#43),#26,.T.);
#336=ADVANCED_FACE('',(#44,#18),#27,.T.);
#337=ADVANCED_FACE('',(#45),#28,.T.);
#338=ADVANCED_FACE('',(#46,#19),#29,.T.);
#339=ADVANCED_FACE('',(#47),#30,.T.);
#340=ADVANCED_FACE('',(#48,#20),#31,.T.);
#341=ADVANCED_FACE('',(#49),#32,.T.);
#342=ADVANCED_FACE('',(#50),#33,.T.);
#343=ADVANCED_FACE('',(#51),#34,.T.);
#344=CLOSED_SHELL('',(#327,#328,#329,#330,#331,#332,#333,#334,#335,#336,
#337,#338,#339,#340,#341,#342,#343));
#345=DERIVED_UNIT_ELEMENT(#347,1.);
#346=DERIVED_UNIT_ELEMENT(#572,3.);
#347=(
MASS_UNIT()
NAMED_UNIT(*)
SI_UNIT($,.GRAM.)
);
#348=DERIVED_UNIT((#345,#346));
#349=MEASURE_REPRESENTATION_ITEM('density measure',
POSITIVE_RATIO_MEASURE(2.7),#348);
#350=PROPERTY_DEFINITION_REPRESENTATION(#355,#352);
#351=PROPERTY_DEFINITION_REPRESENTATION(#356,#353);
#352=REPRESENTATION('material name',(#354),#569);
#353=REPRESENTATION('density',(#349),#569);
#354=DESCRIPTIVE_REPRESENTATION_ITEM('Aluminum 6061','Aluminum 6061');
#355=PROPERTY_DEFINITION('material property','material name',#579);
#356=PROPERTY_DEFINITION('material property','density of part',#579);
#357=DATE_TIME_ROLE('creation_date');
#358=APPLIED_DATE_AND_TIME_ASSIGNMENT(#359,#357,(#579));
#359=DATE_AND_TIME(#360,#361);
#360=CALENDAR_DATE(2018,14,10);
#361=LOCAL_TIME(12,1,41.,#362);
#362=COORDINATED_UNIVERSAL_TIME_OFFSET(0,0,.BEHIND.);
#363=AXIS2_PLACEMENT_3D('placement',#474,#387,#388);
#364=AXIS2_PLACEMENT_3D('',#475,#389,#390);
#365=AXIS2_PLACEMENT_3D('',#477,#391,#392);
#366=AXIS2_PLACEMENT_3D('',#480,#394,#395);
#367=AXIS2_PLACEMENT_3D('',#481,#396,#397);
#368=AXIS2_PLACEMENT_3D('',#483,#398,#399);
#369=AXIS2_PLACEMENT_3D('',#486,#401,#402);
#370=AXIS2_PLACEMENT_3D('',#487,#403,#404);
#371=AXIS2_PLACEMENT_3D('',#489,#405,#406);
#372=AXIS2_PLACEMENT_3D('',#492,#408,#409);
#373=AXIS2_PLACEMENT_3D('',#493,#410,#411);
#374=AXIS2_PLACEMENT_3D('',#502,#416,#417);
#375=AXIS2_PLACEMENT_3D('',#508,#421,#422);
#376=AXIS2_PLACEMENT_3D('',#514,#426,#427);
#377=AXIS2_PLACEMENT_3D('',#520,#431,#432);
#378=AXIS2_PLACEMENT_3D('',#526,#436,#437);
#379=AXIS2_PLACEMENT_3D('',#532,#441,#442);
#380=AXIS2_PLACEMENT_3D('',#538,#446,#447);
#381=AXIS2_PLACEMENT_3D('',#544,#451,#452);
#382=AXIS2_PLACEMENT_3D('',#550,#456,#457);
#383=AXIS2_PLACEMENT_3D('',#556,#461,#462);
#384=AXIS2_PLACEMENT_3D('',#562,#466,#467);
#385=AXIS2_PLACEMENT_3D('',#565,#470,#471);
#386=AXIS2_PLACEMENT_3D('',#566,#472,#473);
#387=DIRECTION('axis',(0.,0.,1.));
#388=DIRECTION('refdir',(1.,0.,0.));
#389=DIRECTION('center_axis',(-3.70074341541717E-16,0.,-1.));
#390=DIRECTION('ref_axis',(-1.,0.,3.70074341541717E-16));
#391=DIRECTION('center_axis',(-4.2700885562506E-16,0.,-1.));
#392=DIRECTION('ref_axis',(-1.,0.,3.70074341541717E-16));
#393=DIRECTION('',(-3.70074341541717E-16,0.,-1.));
#394=DIRECTION('center_axis',(6.10622663543836E-16,0.,1.));
#395=DIRECTION('ref_axis',(-1.,0.,3.70074341541717E-16));
#396=DIRECTION('center_axis',(-3.70074341541717E-16,0.,-1.));
#397=DIRECTION('ref_axis',(-1.,0.,3.70074341541717E-16));
#398=DIRECTION('center_axis',(-1.11022302462516E-16,0.,-1.));
#399=DIRECTION('ref_axis',(-1.,0.,3.70074341541717E-16));
#400=DIRECTION('',(-3.70074341541717E-16,0.,-1.));
#401=DIRECTION('center_axis',(2.56205313375036E-16,0.,1.));
#402=DIRECTION('ref_axis',(-1.,0.,3.70074341541717E-16));
#403=DIRECTION('center_axis',(-3.70074341541717E-16,0.,-1.));
#404=DIRECTION('ref_axis',(-1.,0.,3.70074341541717E-16));
#405=DIRECTION('center_axis',(-6.93889390390723E-16,0.,-1.));
#406=DIRECTION('ref_axis',(-1.,0.,3.70074341541717E-16));
#407=DIRECTION('',(-3.70074341541717E-16,0.,-1.));
#408=DIRECTION('center_axis',(0.,0.,1.));
#409=DIRECTION('ref_axis',(-1.,0.,3.70074341541717E-16));
#410=DIRECTION('center_axis',(1.11022302462516E-16,0.,1.));
#411=DIRECTION('ref_axis',(1.,0.,-1.11022302462516E-16));
#412=DIRECTION('',(1.,0.,-1.11022302462516E-16));
#413=DIRECTION('',(0.,1.,0.));
#414=DIRECTION('',(1.,0.,-1.11022302462516E-16));
#415=DIRECTION('',(0.,1.,0.));
#416=DIRECTION('center_axis',(-1.,0.,0.));
#417=DIRECTION('ref_axis',(0.,0.,1.));
#418=DIRECTION('',(0.,0.,1.));
#419=DIRECTION('',(0.,0.,1.));
#420=DIRECTION('',(0.,1.,0.));
#421=DIRECTION('center_axis',(-2.56205313375036E-16,0.,-1.));
#422=DIRECTION('ref_axis',(-1.,0.,2.56205313375036E-16));
#423=DIRECTION('',(-1.,0.,2.56205313375036E-16));
#424=DIRECTION('',(-1.,0.,2.56205313375036E-16));
#425=DIRECTION('',(0.,1.,0.));
#426=DIRECTION('center_axis',(1.,0.,0.));
#427=DIRECTION('ref_axis',(0.,0.,-1.));
#428=DIRECTION('',(0.,0.,-1.));
#429=DIRECTION('',(0.,0.,-1.));
#430=DIRECTION('',(0.,1.,0.));
#431=DIRECTION('center_axis',(0.,0.,-1.));
#432=DIRECTION('ref_axis',(-1.,0.,0.));
#433=DIRECTION('',(-1.,0.,0.));
#434=DIRECTION('',(-1.,0.,0.));
#435=DIRECTION('',(0.,1.,0.));
#436=DIRECTION('center_axis',(1.,0.,-1.11022302462516E-15));
#437=DIRECTION('ref_axis',(-1.11022302462516E-15,0.,-1.));
#438=DIRECTION('',(-1.11022302462516E-15,0.,-1.));
#439=DIRECTION('',(-1.11022302462516E-15,0.,-1.));
#440=DIRECTION('',(0.,1.,0.));
#441=DIRECTION('center_axis',(6.93889390390723E-16,0.,1.));
#442=DIRECTION('ref_axis',(1.,0.,-6.93889390390723E-16));
#443=DIRECTION('',(1.,0.,-6.93889390390723E-16));
#444=DIRECTION('',(1.,0.,-6.93889390390723E-16));
#445=DIRECTION('',(0.,1.,0.));
#446=DIRECTION('center_axis',(1.,0.,-8.32667268468867E-16));
#447=DIRECTION('ref_axis',(-8.32667268468867E-16,0.,-1.));
#448=DIRECTION('',(-8.32667268468867E-16,0.,-1.));
#449=DIRECTION('',(-8.32667268468867E-16,0.,-1.));
#450=DIRECTION('',(0.,1.,0.));
#451=DIRECTION('center_axis',(4.2700885562506E-16,0.,1.));
#452=DIRECTION('ref_axis',(1.,0.,-4.2700885562506E-16));
#453=DIRECTION('',(1.,0.,-4.2700885562506E-16));
#454=DIRECTION('',(1.,0.,-4.2700885562506E-16));
#455=DIRECTION('',(0.,1.,0.));
#456=DIRECTION('center_axis',(-1.,0.,0.));
#457=DIRECTION('ref_axis',(0.,0.,1.));
#458=DIRECTION('',(0.,0.,1.));
#459=DIRECTION('',(0.,0.,1.));
#460=DIRECTION('',(0.,1.,0.));
#461=DIRECTION('center_axis',(-6.10622663543836E-16,0.,-1.));
#462=DIRECTION('ref_axis',(-1.,0.,6.10622663543836E-16));
#463=DIRECTION('',(-1.,0.,6.10622663543836E-16));
#464=DIRECTION('',(-1.,0.,6.10622663543836E-16));
#465=DIRECTION('',(0.,1.,0.));
#466=DIRECTION('center_axis',(-1.,0.,5.55111512312576E-16));
#467=DIRECTION('ref_axis',(5.55111512312576E-16,0.,1.));
#468=DIRECTION('',(0.,0.,1.));
#469=DIRECTION('',(0.,0.,1.));
#470=DIRECTION('center_axis',(0.,1.,0.));
#471=DIRECTION('ref_axis',(0.,0.,1.));
#472=DIRECTION('center_axis',(0.,-1.,0.));
#473=DIRECTION('ref_axis',(0.,0.,-1.));
#474=CARTESIAN_POINT('',(0.,0.,0.));
#475=CARTESIAN_POINT('Origin',(-16.5,1.5,4.00000000000002));
#476=CARTESIAN_POINT('',(-15.5,1.5,4.00000000000001));
#477=CARTESIAN_POINT('Origin',(-16.5,1.5,4.00000000000002));
#478=CARTESIAN_POINT('',(-15.5,1.5,2.00000000000001));
#479=CARTESIAN_POINT('',(-15.5,1.5,4.00000000000001));
#480=CARTESIAN_POINT('Origin',(-16.5,1.5,2.00000000000001));
#481=CARTESIAN_POINT('Origin',(-16.5,1.5,4.00000000000002));
#482=CARTESIAN_POINT('',(-15.5,1.5,-2.));
#483=CARTESIAN_POINT('Origin',(-16.5,1.5,-2.));
#484=CARTESIAN_POINT('',(-15.5,1.5,-4.));
#485=CARTESIAN_POINT('',(-15.5,1.5,4.00000000000001));
#486=CARTESIAN_POINT('Origin',(-16.5,1.5,-4.));
#487=CARTESIAN_POINT('Origin',(13.5,1.5,4.));
#488=CARTESIAN_POINT('',(14.5,1.5,2.));
#489=CARTESIAN_POINT('Origin',(13.5,1.5,2.));
#490=CARTESIAN_POINT('',(14.5,1.5,-2.00000000000001));
#491=CARTESIAN_POINT('',(14.5,1.5,4.));
#492=CARTESIAN_POINT('Origin',(13.5,1.5,-2.00000000000001));
#493=CARTESIAN_POINT('Origin',(-18.,0.,-2.));
#494=CARTESIAN_POINT('',(-18.,0.,-2.));
#495=CARTESIAN_POINT('',(-8.,0.,-2.00000000000001));
#496=CARTESIAN_POINT('',(-18.,0.,-2.));
#497=CARTESIAN_POINT('',(-8.,3.,-2.00000000000001));
#498=CARTESIAN_POINT('',(-8.,0.,-2.00000000000001));
#499=CARTESIAN_POINT('',(-18.,3.,-2.));
#500=CARTESIAN_POINT('',(-18.,3.,-2.));
#501=CARTESIAN_POINT('',(-18.,0.,-2.));
#502=CARTESIAN_POINT('Origin',(-18.,0.,-4.));
#503=CARTESIAN_POINT('',(-18.,0.,-4.));
#504=CARTESIAN_POINT('',(-18.,0.,-4.));
#505=CARTESIAN_POINT('',(-18.,3.,-4.));
#506=CARTESIAN_POINT('',(-18.,3.,-4.));
#507=CARTESIAN_POINT('',(-18.,0.,-4.));
#508=CARTESIAN_POINT('Origin',(-5.,0.,-4.00000000000001));
#509=CARTESIAN_POINT('',(-5.,0.,-4.00000000000001));
#510=CARTESIAN_POINT('',(-5.,0.,-4.00000000000001));
#511=CARTESIAN_POINT('',(-5.,3.,-4.00000000000001));
#512=CARTESIAN_POINT('',(-5.,3.,-4.00000000000001));
#513=CARTESIAN_POINT('',(-5.,0.,-4.00000000000001));
#514=CARTESIAN_POINT('Origin',(-5.,0.,-2.00000000000001));
#515=CARTESIAN_POINT('',(-5.,0.,-2.00000000000001));
#516=CARTESIAN_POINT('',(-5.,0.,-2.00000000000001));
#517=CARTESIAN_POINT('',(-5.,3.,-2.00000000000001));
#518=CARTESIAN_POINT('',(-5.,3.,-2.00000000000001));
#519=CARTESIAN_POINT('',(-5.,0.,-2.00000000000001));
#520=CARTESIAN_POINT('Origin',(15.,0.,-2.00000000000001));
#521=CARTESIAN_POINT('',(15.,0.,-2.00000000000001));
#522=CARTESIAN_POINT('',(15.,0.,-2.00000000000001));
#523=CARTESIAN_POINT('',(15.,3.,-2.00000000000001));
#524=CARTESIAN_POINT('',(15.,3.,-2.00000000000001));
#525=CARTESIAN_POINT('',(15.,0.,-2.00000000000001));
#526=CARTESIAN_POINT('Origin',(15.,0.,2.));
#527=CARTESIAN_POINT('',(15.,0.,2.));
#528=CARTESIAN_POINT('',(15.,0.,2.));
#529=CARTESIAN_POINT('',(15.,3.,2.));
#530=CARTESIAN_POINT('',(15.,3.,2.));
#531=CARTESIAN_POINT('',(15.,0.,2.));
#532=CARTESIAN_POINT('Origin',(-5.,0.,2.00000000000001));
#533=CARTESIAN_POINT('',(-5.,0.,2.00000000000001));
#534=CARTESIAN_POINT('',(-5.,0.,2.00000000000001));
#535=CARTESIAN_POINT('',(-5.,3.,2.00000000000001));
#536=CARTESIAN_POINT('',(-5.,3.,2.00000000000001));
#537=CARTESIAN_POINT('',(-5.,0.,2.00000000000001));
#538=CARTESIAN_POINT('Origin',(-5.,0.,4.00000000000001));
#539=CARTESIAN_POINT('',(-5.,0.,4.00000000000001));
#540=CARTESIAN_POINT('',(-5.,0.,4.00000000000001));
#541=CARTESIAN_POINT('',(-5.,3.,4.00000000000001));
#542=CARTESIAN_POINT('',(-5.,3.,4.00000000000001));
#543=CARTESIAN_POINT('',(-5.,0.,4.00000000000001));
#544=CARTESIAN_POINT('Origin',(-18.,0.,4.00000000000002));
#545=CARTESIAN_POINT('',(-18.,0.,4.00000000000002));
#546=CARTESIAN_POINT('',(-18.,0.,4.00000000000002));
#547=CARTESIAN_POINT('',(-18.,3.,4.00000000000002));
#548=CARTESIAN_POINT('',(-18.,3.,4.00000000000002));
#549=CARTESIAN_POINT('',(-18.,0.,4.00000000000002));
#550=CARTESIAN_POINT('Origin',(-18.,0.,2.00000000000002));
#551=CARTESIAN_POINT('',(-18.,0.,2.00000000000002));
#552=CARTESIAN_POINT('',(-18.,0.,2.00000000000002));
#553=CARTESIAN_POINT('',(-18.,3.,2.00000000000002));
#554=CARTESIAN_POINT('',(-18.,3.,2.00000000000002));
#555=CARTESIAN_POINT('',(-18.,0.,2.00000000000002));
#556=CARTESIAN_POINT('Origin',(-8.,0.,2.00000000000001));
#557=CARTESIAN_POINT('',(-8.,0.,2.00000000000001));
#558=CARTESIAN_POINT('',(-8.,0.,2.00000000000001));
#559=CARTESIAN_POINT('',(-8.,3.,2.00000000000001));
#560=CARTESIAN_POINT('',(-8.,3.,2.00000000000001));
#561=CARTESIAN_POINT('',(-8.,0.,2.00000000000001));
#562=CARTESIAN_POINT('Origin',(-8.,0.,3.05311331771918E-15));
#563=CARTESIAN_POINT('',(-8.,0.,-2.00000000000001));
#564=CARTESIAN_POINT('',(-8.,3.,-2.00000000000001));
#565=CARTESIAN_POINT('Origin',(-1.77027027027027,3.,1.72972972972973));
#566=CARTESIAN_POINT('Origin',(-1.77027027027027,0.,1.72972972972973));
#567=UNCERTAINTY_MEASURE_WITH_UNIT(LENGTH_MEASURE(0.01),#571,
'DISTANCE_ACCURACY_VALUE',
'Maximum model space distance between geometric entities at asserted c
onnectivities');
#568=UNCERTAINTY_MEASURE_WITH_UNIT(LENGTH_MEASURE(0.01),#571,
'DISTANCE_ACCURACY_VALUE',
'Maximum model space distance between geometric entities at asserted c
onnectivities');
#569=(
GEOMETRIC_REPRESENTATION_CONTEXT(3)
GLOBAL_UNCERTAINTY_ASSIGNED_CONTEXT((#567))
GLOBAL_UNIT_ASSIGNED_CONTEXT((#571,#574,#573))
REPRESENTATION_CONTEXT('','3D')
);
#570=(
GEOMETRIC_REPRESENTATION_CONTEXT(3)
GLOBAL_UNCERTAINTY_ASSIGNED_CONTEXT((#568))
GLOBAL_UNIT_ASSIGNED_CONTEXT((#571,#574,#573))
REPRESENTATION_CONTEXT('','3D')
);
#571=(
LENGTH_UNIT()
NAMED_UNIT(*)
SI_UNIT(.MILLI.,.METRE.)
);
#572=(
LENGTH_UNIT()
NAMED_UNIT(*)
SI_UNIT(.CENTI.,.METRE.)
);
#573=(
NAMED_UNIT(*)
SI_UNIT($,.STERADIAN.)
SOLID_ANGLE_UNIT()
);
#574=(
NAMED_UNIT(*)
PLANE_ANGLE_UNIT()
SI_UNIT($,.RADIAN.)
);
#575=SHAPE_DEFINITION_REPRESENTATION(#576,#577);
#576=PRODUCT_DEFINITION_SHAPE('',$,#579);
#577=SHAPE_REPRESENTATION('',(#363),#569);
#578=PRODUCT_DEFINITION_CONTEXT('part definition',#583,'design');
#579=PRODUCT_DEFINITION('ConcordeScaledMainLandingGearProto5',
'ConcordeScaledLandingGearTorqueLink',#580,#578);
#580=PRODUCT_DEFINITION_FORMATION('',$,#585);
#581=PRODUCT_RELATED_PRODUCT_CATEGORY(
'ConcordeScaledLandingGearTorqueLink',
'ConcordeScaledLandingGearTorqueLink',(#585));
#582=APPLICATION_PROTOCOL_DEFINITION('international standard',
'automotive_design',2009,#583);
#583=APPLICATION_CONTEXT(
'Core Data for Automotive Mechanical Design Process');
#584=PRODUCT_CONTEXT('part definition',#583,'mechanical');
#585=PRODUCT('ConcordeScaledMainLandingGearProto5',
'ConcordeScaledLandingGearTorqueLink',$,(#584));
#586=PRESENTATION_STYLE_ASSIGNMENT((#587));
#587=SURFACE_STYLE_USAGE(.BOTH.,#588);
#588=SURFACE_SIDE_STYLE('',(#589));
#589=SURFACE_STYLE_FILL_AREA(#590);
#590=FILL_AREA_STYLE('',(#591));
#591=FILL_AREA_STYLE_COLOUR('',#592);
#592=COLOUR_RGB('',0.996078431372549,0.996078431372549,1.);
ENDSEC;
END-ISO-10303-21;
