ISO-10303-21;
HEADER;
FILE_DESCRIPTION(('CATIA V5 STEP Exchange'),'2;1');

FILE_NAME('D:\\Projet Splitboard\\Chaussure Splitboard\\Consultation 19-01\\Colonne Butee AR - 00.stp','2019-01-25T19:20:46+00:00',('none'),('none'),'CATIA Version 5 Release 21 GA (IN-10)','CATIA V5 STEP AP203','none');

FILE_SCHEMA(('CONFIG_CONTROL_DESIGN'));

ENDSEC;
/* file written by CATIA V5R21 */
DATA;
#5=PRODUCT('Colonne Butee AR - 00','','',(#2)) ;
#1=APPLICATION_CONTEXT('configuration controlled 3D design of mechanical parts and assemblies') ;
#14=PRODUCT_DEFINITION('',' ',#6,#3) ;
#16=SECURITY_CLASSIFICATION(' ',' ',#15) ;
#15=SECURITY_CLASSIFICATION_LEVEL('unclassified') ;
#47=CARTESIAN_POINT(' ',(0.,0.,0.)) ;
#52=CARTESIAN_POINT('Axis2P3D Location',(-3.,0.,-8.)) ;
#57=CARTESIAN_POINT('Axis2P3D Location',(0.,-2.22044604925E-016,-8.)) ;
#61=CARTESIAN_POINT('Vertex',(-3.,1.80277563773,-8.)) ;
#63=CARTESIAN_POINT('Vertex',(-3.,-1.80277563773,-8.)) ;
#66=CARTESIAN_POINT('Line Origine',(-3.,2.22044604925E-016,-8.)) ;
#76=CARTESIAN_POINT('Axis2P3D Location',(-3.,0.,-8.)) ;
#81=CARTESIAN_POINT('Line Origine',(-3.,1.80277563773,-11.)) ;
#85=CARTESIAN_POINT('Vertex',(-3.,1.80277563773,-14.)) ;
#88=CARTESIAN_POINT('Line Origine',(-3.,2.22044604925E-016,-14.)) ;
#92=CARTESIAN_POINT('Vertex',(-3.,-1.80277563773,-14.)) ;
#95=CARTESIAN_POINT('Line Origine',(-3.,-1.80277563773,-11.)) ;
#107=CARTESIAN_POINT('Axis2P3D Location',(-6.,0.,-14.)) ;
#112=CARTESIAN_POINT('Axis2P3D Location',(0.,-2.22044604925E-016,-14.)) ;
#122=CARTESIAN_POINT('Axis2P3D Location',(0.,0.,0.)) ;
#127=CARTESIAN_POINT('Axis2P3D Location',(0.,0.,0.)) ;
#131=CARTESIAN_POINT('Vertex',(1.67798938511,3.07153896662,0.)) ;
#133=CARTESIAN_POINT('Vertex',(-1.67798938511,-3.07153896662,0.)) ;
#136=CARTESIAN_POINT('Axis2P3D Location',(0.,0.,0.)) ;
#145=CARTESIAN_POINT('Axis2P3D Location',(2.22044604925E-016,-2.22044604925E-016,0.)) ;
#149=CARTESIAN_POINT('Vertex',(-1.44801122712,0.791052138697,-3.60822483003E-016)) ;
#151=CARTESIAN_POINT('Vertex',(1.44801122712,-0.791052138697,-3.60822483003E-016)) ;
#154=CARTESIAN_POINT('Axis2P3D Location',(2.77555756156E-016,-6.66133814775E-016,0.)) ;
#164=CARTESIAN_POINT('Axis2P3D Location',(4.4408920985E-016,0.,-8.)) ;
#168=CARTESIAN_POINT('Vertex',(3.,-1.80277563773,-8.)) ;
#170=CARTESIAN_POINT('Vertex',(3.,1.80277563773,-8.)) ;
#173=CARTESIAN_POINT('Line Origine',(3.,6.66133814775E-016,-8.)) ;
#183=CARTESIAN_POINT('Axis2P3D Location',(-8.881784197E-016,0.,-14.)) ;
#187=CARTESIAN_POINT('Vertex',(3.,1.80277563773,-14.)) ;
#189=CARTESIAN_POINT('Vertex',(3.,-1.80277563773,-14.)) ;
#192=CARTESIAN_POINT('Line Origine',(3.,6.66133814775E-016,-14.)) ;
#202=CARTESIAN_POINT('Axis2P3D Location',(0.,0.,-0.1)) ;
#207=CARTESIAN_POINT('Line Origine',(1.44801122712,-0.791052138697,-9.84499999925)) ;
#211=CARTESIAN_POINT('Vertex',(1.44801122712,-0.791052138697,-20.)) ;
#214=CARTESIAN_POINT('Axis2P3D Location',(0.,0.,-20.)) ;
#218=CARTESIAN_POINT('Vertex',(-1.44801122712,-0.791052138697,-20.)) ;
#221=CARTESIAN_POINT('Axis2P3D Location',(0.,0.,-20.)) ;
#225=CARTESIAN_POINT('Vertex',(-1.44801122712,0.791052138697,-20.)) ;
#228=CARTESIAN_POINT('Line Origine',(-1.44801122712,0.791052138697,-9.84499999925)) ;
#241=CARTESIAN_POINT('Axis2P3D Location',(0.,0.,-20.)) ;
#245=CARTESIAN_POINT('Vertex',(1.44801122712,0.791052138697,-20.)) ;
#248=CARTESIAN_POINT('Axis2P3D Location',(0.,0.,-20.)) ;
#261=CARTESIAN_POINT('Axis2P3D Location',(0.,0.,-39.9)) ;
#266=CARTESIAN_POINT('Axis2P3D Location',(0.,0.,-40.)) ;
#270=CARTESIAN_POINT('Vertex',(1.44801122712,0.791052138697,-40.)) ;
#272=CARTESIAN_POINT('Vertex',(-1.44801122712,-0.791052138697,-40.)) ;
#275=CARTESIAN_POINT('Line Origine',(-1.44801122712,-0.791052138697,-30.1550000002)) ;
#280=CARTESIAN_POINT('Line Origine',(1.44801122712,0.791052138697,-30.1550000002)) ;
#293=CARTESIAN_POINT('Axis2P3D Location',(0.,0.,-40.)) ;
#306=CARTESIAN_POINT('Axis2P3D Location',(3.,0.,-8.)) ;
#311=CARTESIAN_POINT('Line Origine',(3.,-1.80277563773,-11.)) ;
#316=CARTESIAN_POINT('Line Origine',(3.,1.80277563773,-11.)) ;
#328=CARTESIAN_POINT('Axis2P3D Location',(0.,0.,-20.)) ;
#333=CARTESIAN_POINT('Line Origine',(1.67798938511,3.07153896662,-20.)) ;
#337=CARTESIAN_POINT('Vertex',(1.67798938511,3.07153896662,-39.)) ;
#340=CARTESIAN_POINT('Line Origine',(-1.67798938511,-3.07153896662,-20.)) ;
#344=CARTESIAN_POINT('Vertex',(-1.67798938511,-3.07153896662,-39.)) ;
#347=CARTESIAN_POINT('Axis2P3D Location',(0.,0.,-39.)) ;
#365=CARTESIAN_POINT('Axis2P3D Location',(0.,0.,-40.)) ;
#370=CARTESIAN_POINT('Axis2P3D Location',(0.,6.8372006627E-018,-40.)) ;
#374=CARTESIAN_POINT('Vertex',(1.19856384651,2.19395640473,-40.)) ;
#376=CARTESIAN_POINT('Vertex',(-1.19856384651,-2.19395640473,-40.)) ;
#379=CARTESIAN_POINT('Axis2P3D Location',(0.,6.8372006627E-018,-40.)) ;
#393=CARTESIAN_POINT('Axis2P3D Location',(0.,0.,-39.)) ;
#411=CARTESIAN_POINT('Axis2P3D Location',(-1.7763568394E-015,5.20417042793E-016,-42.5)) ;
#416=CARTESIAN_POINT('Line Origine',(1.43827661581,2.63274768567,-39.5)) ;
#421=CARTESIAN_POINT('Line Origine',(-1.43827661581,-2.63274768567,-39.5)) ;
#433=CARTESIAN_POINT('Axis2P3D Location',(-3.60822483003E-015,0.,-42.5)) ;
#53=DIRECTION('Axis2P3D Direction',(0.,0.,1.)) ;
#54=DIRECTION('Axis2P3D XDirection',(-1.,0.,0.)) ;
#58=DIRECTION('Axis2P3D Direction',(0.,0.,1.)) ;
#67=DIRECTION('Vector Direction',(0.,-1.,0.)) ;
#77=DIRECTION('Axis2P3D Direction',(-1.,0.,0.)) ;
#78=DIRECTION('Axis2P3D XDirection',(-0.,0.,-1.)) ;
#82=DIRECTION('Vector Direction',(0.,0.,-1.)) ;
#89=DIRECTION('Vector Direction',(0.,-1.,0.)) ;
#96=DIRECTION('Vector Direction',(0.,0.,-1.)) ;
#108=DIRECTION('Axis2P3D Direction',(0.,0.,-1.)) ;
#109=DIRECTION('Axis2P3D XDirection',(1.,-0.,0.)) ;
#113=DIRECTION('Axis2P3D Direction',(0.,0.,-1.)) ;
#123=DIRECTION('Axis2P3D Direction',(0.,0.,-1.)) ;
#124=DIRECTION('Axis2P3D XDirection',(1.,0.,0.)) ;
#128=DIRECTION('Axis2P3D Direction',(0.,0.,-1.)) ;
#137=DIRECTION('Axis2P3D Direction',(0.,0.,-1.)) ;
#146=DIRECTION('Axis2P3D Direction',(0.,0.,-1.)) ;
#155=DIRECTION('Axis2P3D Direction',(0.,0.,-1.)) ;
#165=DIRECTION('Axis2P3D Direction',(0.,0.,1.)) ;
#174=DIRECTION('Vector Direction',(0.,-1.,0.)) ;
#184=DIRECTION('Axis2P3D Direction',(0.,0.,-1.)) ;
#193=DIRECTION('Vector Direction',(0.,-1.,0.)) ;
#203=DIRECTION('Axis2P3D Direction',(0.,-0.,-1.)) ;
#204=DIRECTION('Axis2P3D XDirection',(0.87758256189,-0.479425538604,0.)) ;
#208=DIRECTION('Vector Direction',(0.,0.,-1.)) ;
#215=DIRECTION('Axis2P3D Direction',(0.,-0.,-1.)) ;
#222=DIRECTION('Axis2P3D Direction',(0.,-0.,-1.)) ;
#229=DIRECTION('Vector Direction',(0.,0.,-1.)) ;
#242=DIRECTION('Axis2P3D Direction',(0.,-0.,-1.)) ;
#249=DIRECTION('Axis2P3D Direction',(0.,-0.,-1.)) ;
#262=DIRECTION('Axis2P3D Direction',(0.,-0.,1.)) ;
#263=DIRECTION('Axis2P3D XDirection',(0.87758256189,0.479425538604,0.)) ;
#267=DIRECTION('Axis2P3D Direction',(0.,-0.,1.)) ;
#276=DIRECTION('Vector Direction',(0.,0.,1.)) ;
#281=DIRECTION('Vector Direction',(0.,0.,1.)) ;
#294=DIRECTION('Axis2P3D Direction',(0.,-0.,1.)) ;
#307=DIRECTION('Axis2P3D Direction',(-1.,0.,0.)) ;
#308=DIRECTION('Axis2P3D XDirection',(-0.,0.,-1.)) ;
#312=DIRECTION('Vector Direction',(0.,0.,-1.)) ;
#317=DIRECTION('Vector Direction',(0.,0.,-1.)) ;
#329=DIRECTION('Axis2P3D Direction',(0.,0.,-1.)) ;
#330=DIRECTION('Axis2P3D XDirection',(0.479425538604,0.87758256189,0.)) ;
#334=DIRECTION('Vector Direction',(0.,0.,-1.)) ;
#341=DIRECTION('Vector Direction',(0.,0.,-1.)) ;
#348=DIRECTION('Axis2P3D Direction',(0.,0.,-1.)) ;
#366=DIRECTION('Axis2P3D Direction',(0.,0.,-1.)) ;
#367=DIRECTION('Axis2P3D XDirection',(1.,0.,0.)) ;
#371=DIRECTION('Axis2P3D Direction',(0.,0.,-1.)) ;
#380=DIRECTION('Axis2P3D Direction',(0.,0.,-1.)) ;
#394=DIRECTION('Axis2P3D Direction',(0.,0.,-1.)) ;
#412=DIRECTION('Axis2P3D Direction',(4.4408920985E-016,-2.22044604925E-016,1.)) ;
#413=DIRECTION('Axis2P3D XDirection',(0.479425538604,0.87758256189,0.)) ;
#417=DIRECTION('Vector Direction',(0.339005049421,0.620544580564,0.707106781187)) ;
#422=DIRECTION('Vector Direction',(-0.339005049421,-0.620544580564,0.707106781187)) ;
#434=DIRECTION('Axis2P3D Direction',(1.22124532709E-015,-0.,1.)) ;
#435=DIRECTION('Axis2P3D XDirection',(0.520296023213,-0.853985976599,-6.58544507983E-016)) ;
#48=AXIS2_PLACEMENT_3D(' ',#47,$,$) ;
#55=AXIS2_PLACEMENT_3D('Plane Axis2P3D',#52,#53,#54) ;
#59=AXIS2_PLACEMENT_3D('Circle Axis2P3D',#57,#58,$) ;
#79=AXIS2_PLACEMENT_3D('Plane Axis2P3D',#76,#77,#78) ;
#110=AXIS2_PLACEMENT_3D('Plane Axis2P3D',#107,#108,#109) ;
#114=AXIS2_PLACEMENT_3D('Circle Axis2P3D',#112,#113,$) ;
#125=AXIS2_PLACEMENT_3D('Plane Axis2P3D',#122,#123,#124) ;
#129=AXIS2_PLACEMENT_3D('Circle Axis2P3D',#127,#128,$) ;
#138=AXIS2_PLACEMENT_3D('Circle Axis2P3D',#136,#137,$) ;
#147=AXIS2_PLACEMENT_3D('Circle Axis2P3D',#145,#146,$) ;
#156=AXIS2_PLACEMENT_3D('Circle Axis2P3D',#154,#155,$) ;
#166=AXIS2_PLACEMENT_3D('Circle Axis2P3D',#164,#165,$) ;
#185=AXIS2_PLACEMENT_3D('Circle Axis2P3D',#183,#184,$) ;
#205=AXIS2_PLACEMENT_3D('Cylinder Axis2P3D',#202,#203,#204) ;
#216=AXIS2_PLACEMENT_3D('Circle Axis2P3D',#214,#215,$) ;
#223=AXIS2_PLACEMENT_3D('Circle Axis2P3D',#221,#222,$) ;
#243=AXIS2_PLACEMENT_3D('Circle Axis2P3D',#241,#242,$) ;
#250=AXIS2_PLACEMENT_3D('Circle Axis2P3D',#248,#249,$) ;
#264=AXIS2_PLACEMENT_3D('Cylinder Axis2P3D',#261,#262,#263) ;
#268=AXIS2_PLACEMENT_3D('Circle Axis2P3D',#266,#267,$) ;
#295=AXIS2_PLACEMENT_3D('Circle Axis2P3D',#293,#294,$) ;
#309=AXIS2_PLACEMENT_3D('Plane Axis2P3D',#306,#307,#308) ;
#331=AXIS2_PLACEMENT_3D('Cylinder Axis2P3D',#328,#329,#330) ;
#349=AXIS2_PLACEMENT_3D('Circle Axis2P3D',#347,#348,$) ;
#368=AXIS2_PLACEMENT_3D('Plane Axis2P3D',#365,#366,#367) ;
#372=AXIS2_PLACEMENT_3D('Circle Axis2P3D',#370,#371,$) ;
#381=AXIS2_PLACEMENT_3D('Circle Axis2P3D',#379,#380,$) ;
#395=AXIS2_PLACEMENT_3D('Circle Axis2P3D',#393,#394,$) ;
#414=AXIS2_PLACEMENT_3D('Cone Axis2P3D',#411,#412,#413) ;
#436=AXIS2_PLACEMENT_3D('Cone Axis2P3D',#433,#434,#435) ;
#40=PRODUCT_DEFINITION_SHAPE(' ',' ',#14) ;
#31=APPROVAL_PERSON_ORGANIZATION(#25,#21,#19) ;
#25=PERSON_AND_ORGANIZATION(#22,#23) ;
#22=PERSON(' ',' ',' ',$,$,$) ;
#23=ORGANIZATION(' ',' ',' ') ;
#21=APPROVAL(#20,' ') ;
#20=APPROVAL_STATUS('not_yet_approved') ;
#19=APPROVAL_ROLE('APPROVER') ;
#13=DATE_AND_TIME(#11,#12) ;
#12=LOCAL_TIME(20,20,46.,#10) ;
#10=COORDINATED_UNIVERSAL_TIME_OFFSET(0,0,.AHEAD.) ;
#72=ORIENTED_EDGE('',*,*,#65,.F.) ;
#73=ORIENTED_EDGE('',*,*,#70,.T.) ;
#101=ORIENTED_EDGE('',*,*,#87,.T.) ;
#102=ORIENTED_EDGE('',*,*,#94,.T.) ;
#103=ORIENTED_EDGE('',*,*,#99,.F.) ;
#104=ORIENTED_EDGE('',*,*,#70,.F.) ;
#118=ORIENTED_EDGE('',*,*,#116,.F.) ;
#119=ORIENTED_EDGE('',*,*,#94,.F.) ;
#142=ORIENTED_EDGE('',*,*,#135,.F.) ;
#143=ORIENTED_EDGE('',*,*,#140,.F.) ;
#160=ORIENTED_EDGE('',*,*,#153,.T.) ;
#161=ORIENTED_EDGE('',*,*,#158,.T.) ;
#179=ORIENTED_EDGE('',*,*,#172,.F.) ;
#180=ORIENTED_EDGE('',*,*,#177,.F.) ;
#198=ORIENTED_EDGE('',*,*,#191,.F.) ;
#199=ORIENTED_EDGE('',*,*,#196,.T.) ;
#234=ORIENTED_EDGE('',*,*,#158,.F.) ;
#235=ORIENTED_EDGE('',*,*,#213,.F.) ;
#236=ORIENTED_EDGE('',*,*,#220,.F.) ;
#237=ORIENTED_EDGE('',*,*,#227,.F.) ;
#238=ORIENTED_EDGE('',*,*,#232,.T.) ;
#254=ORIENTED_EDGE('',*,*,#153,.F.) ;
#255=ORIENTED_EDGE('',*,*,#232,.F.) ;
#256=ORIENTED_EDGE('',*,*,#247,.F.) ;
#257=ORIENTED_EDGE('',*,*,#252,.F.) ;
#258=ORIENTED_EDGE('',*,*,#213,.T.) ;
#286=ORIENTED_EDGE('',*,*,#274,.T.) ;
#287=ORIENTED_EDGE('',*,*,#279,.F.) ;
#288=ORIENTED_EDGE('',*,*,#220,.T.) ;
#289=ORIENTED_EDGE('',*,*,#252,.T.) ;
#290=ORIENTED_EDGE('',*,*,#284,.T.) ;
#299=ORIENTED_EDGE('',*,*,#297,.T.) ;
#300=ORIENTED_EDGE('',*,*,#284,.F.) ;
#301=ORIENTED_EDGE('',*,*,#247,.T.) ;
#302=ORIENTED_EDGE('',*,*,#227,.T.) ;
#303=ORIENTED_EDGE('',*,*,#279,.T.) ;
#322=ORIENTED_EDGE('',*,*,#177,.T.) ;
#323=ORIENTED_EDGE('',*,*,#315,.T.) ;
#324=ORIENTED_EDGE('',*,*,#196,.F.) ;
#325=ORIENTED_EDGE('',*,*,#320,.F.) ;
#353=ORIENTED_EDGE('',*,*,#339,.T.) ;
#354=ORIENTED_EDGE('',*,*,#135,.T.) ;
#355=ORIENTED_EDGE('',*,*,#346,.F.) ;
#356=ORIENTED_EDGE('',*,*,#351,.F.) ;
#359=ORIENTED_EDGE('',*,*,#315,.F.) ;
#360=ORIENTED_EDGE('',*,*,#172,.T.) ;
#361=ORIENTED_EDGE('',*,*,#320,.T.) ;
#362=ORIENTED_EDGE('',*,*,#191,.T.) ;
#385=ORIENTED_EDGE('',*,*,#378,.T.) ;
#386=ORIENTED_EDGE('',*,*,#383,.T.) ;
#389=ORIENTED_EDGE('',*,*,#297,.F.) ;
#390=ORIENTED_EDGE('',*,*,#274,.F.) ;
#399=ORIENTED_EDGE('',*,*,#346,.T.) ;
#400=ORIENTED_EDGE('',*,*,#140,.T.) ;
#401=ORIENTED_EDGE('',*,*,#339,.F.) ;
#402=ORIENTED_EDGE('',*,*,#397,.F.) ;
#405=ORIENTED_EDGE('',*,*,#116,.T.) ;
#406=ORIENTED_EDGE('',*,*,#87,.F.) ;
#407=ORIENTED_EDGE('',*,*,#65,.T.) ;
#408=ORIENTED_EDGE('',*,*,#99,.T.) ;
#427=ORIENTED_EDGE('',*,*,#420,.T.) ;
#428=ORIENTED_EDGE('',*,*,#351,.T.) ;
#429=ORIENTED_EDGE('',*,*,#425,.F.) ;
#430=ORIENTED_EDGE('',*,*,#378,.F.) ;
#439=ORIENTED_EDGE('',*,*,#425,.T.) ;
#440=ORIENTED_EDGE('',*,*,#397,.T.) ;
#441=ORIENTED_EDGE('',*,*,#420,.F.) ;
#442=ORIENTED_EDGE('',*,*,#383,.F.) ;
#162=FACE_BOUND('',#159,.T.) ;
#363=FACE_BOUND('',#358,.T.) ;
#391=FACE_BOUND('',#388,.T.) ;
#409=FACE_BOUND('',#404,.T.) ;
#51=CLOSED_SHELL('Closed Shell',(#75,#106,#121,#163,#182,#201,#240,#260,#292,#305,#327,#364,#392,#410,#432,#444)) ;
#68=VECTOR('Line Direction',#67,1.) ;
#83=VECTOR('Line Direction',#82,1.) ;
#90=VECTOR('Line Direction',#89,1.) ;
#97=VECTOR('Line Direction',#96,1.) ;
#175=VECTOR('Line Direction',#174,1.) ;
#194=VECTOR('Line Direction',#193,1.) ;
#209=VECTOR('Line Direction',#208,1.) ;
#230=VECTOR('Line Direction',#229,1.) ;
#277=VECTOR('Line Direction',#276,1.) ;
#282=VECTOR('Line Direction',#281,1.) ;
#313=VECTOR('Line Direction',#312,1.) ;
#318=VECTOR('Line Direction',#317,1.) ;
#335=VECTOR('Line Direction',#334,1.) ;
#342=VECTOR('Line Direction',#341,1.) ;
#418=VECTOR('Line Direction',#417,1.) ;
#423=VECTOR('Line Direction',#422,1.) ;
#446=ADVANCED_BREP_SHAPE_REPRESENTATION('NONE',(#445),#46) ;
#49=SHAPE_REPRESENTATION(' ',(#48),#46) ;
#75=ADVANCED_FACE('Corps principal',(#74),#56,.F.) ;
#106=ADVANCED_FACE('Corps principal',(#105),#80,.T.) ;
#121=ADVANCED_FACE('Corps principal',(#120),#111,.F.) ;
#163=ADVANCED_FACE('Corps principal',(#144,#162),#126,.F.) ;
#182=ADVANCED_FACE('Corps principal',(#181),#56,.F.) ;
#201=ADVANCED_FACE('Corps principal',(#200),#111,.F.) ;
#240=ADVANCED_FACE('Corps principal',(#239),#206,.F.) ;
#260=ADVANCED_FACE('Corps principal',(#259),#206,.F.) ;
#292=ADVANCED_FACE('Corps principal',(#291),#265,.F.) ;
#305=ADVANCED_FACE('Corps principal',(#304),#265,.F.) ;
#327=ADVANCED_FACE('Corps principal',(#326),#310,.F.) ;
#364=ADVANCED_FACE('Corps principal',(#357,#363),#332,.T.) ;
#392=ADVANCED_FACE('Corps principal',(#387,#391),#369,.T.) ;
#410=ADVANCED_FACE('Corps principal',(#403,#409),#332,.T.) ;
#432=ADVANCED_FACE('Corps principal',(#431),#415,.T.) ;
#444=ADVANCED_FACE('Corps principal',(#443),#437,.T.) ;
#4=APPLICATION_PROTOCOL_DEFINITION('international standard','config_control_design',1994,#1) ;
#32=APPROVAL_DATE_TIME(#13,#21) ;
#445=MANIFOLD_SOLID_BREP('Corps principal',#51) ;
#11=CALENDAR_DATE(2019,25,1) ;
#30=CC_DESIGN_APPROVAL(#21,(#16,#6,#14)) ;
#18=CC_DESIGN_DATE_AND_TIME_ASSIGNMENT(#13,#17,(#16)) ;
#29=CC_DESIGN_DATE_AND_TIME_ASSIGNMENT(#13,#28,(#14)) ;
#17=DATE_TIME_ROLE('classification_date') ;
#28=DATE_TIME_ROLE('creation_date') ;
#27=CC_DESIGN_PERSON_AND_ORGANIZATION_ASSIGNMENT(#25,#26,(#16)) ;
#33=CC_DESIGN_PERSON_AND_ORGANIZATION_ASSIGNMENT(#25,#34,(#6)) ;
#35=CC_DESIGN_PERSON_AND_ORGANIZATION_ASSIGNMENT(#25,#36,(#6,#14)) ;
#37=CC_DESIGN_PERSON_AND_ORGANIZATION_ASSIGNMENT(#25,#38,(#5)) ;
#26=PERSON_AND_ORGANIZATION_ROLE('classification_officer') ;
#34=PERSON_AND_ORGANIZATION_ROLE('design_supplier') ;
#36=PERSON_AND_ORGANIZATION_ROLE('creator') ;
#38=PERSON_AND_ORGANIZATION_ROLE('design_owner') ;
#39=CC_DESIGN_SECURITY_CLASSIFICATION(#16,(#6)) ;
#60=CIRCLE('generated circle',#59,3.5) ;
#115=CIRCLE('generated circle',#114,3.5) ;
#130=CIRCLE('generated circle',#129,3.5) ;
#139=CIRCLE('generated circle',#138,3.5) ;
#148=CIRCLE('generated circle',#147,1.65) ;
#157=CIRCLE('generated circle',#156,1.65) ;
#167=CIRCLE('generated circle',#166,3.5) ;
#186=CIRCLE('generated circle',#185,3.5) ;
#217=CIRCLE('generated circle',#216,1.65) ;
#224=CIRCLE('generated circle',#223,1.65) ;
#244=CIRCLE('generated circle',#243,1.65) ;
#251=CIRCLE('generated circle',#250,1.65) ;
#269=CIRCLE('generated circle',#268,1.65) ;
#296=CIRCLE('generated circle',#295,1.65) ;
#350=CIRCLE('generated circle',#349,3.5) ;
#373=CIRCLE('generated circle',#372,2.5) ;
#382=CIRCLE('generated circle',#381,2.5) ;
#396=CIRCLE('generated circle',#395,3.5) ;
#415=CONICAL_SURFACE('Cone',#414,0.,0.785398163397) ;
#437=CONICAL_SURFACE('Cone',#436,0.,0.785398163397) ;
#447=SHAPE_REPRESENTATION_RELATIONSHIP(' ',' ',#49,#446) ;
#206=CYLINDRICAL_SURFACE('generated cylinder',#205,1.65) ;
#265=CYLINDRICAL_SURFACE('generated cylinder',#264,1.65) ;
#332=CYLINDRICAL_SURFACE('generated cylinder',#331,3.5) ;
#3=DESIGN_CONTEXT(' ',#1,'design') ;
#65=EDGE_CURVE('',#62,#64,#60,.T.) ;
#70=EDGE_CURVE('',#62,#64,#69,.T.) ;
#87=EDGE_CURVE('',#62,#86,#84,.T.) ;
#94=EDGE_CURVE('',#86,#93,#91,.T.) ;
#99=EDGE_CURVE('',#64,#93,#98,.T.) ;
#116=EDGE_CURVE('',#93,#86,#115,.T.) ;
#135=EDGE_CURVE('',#132,#134,#130,.T.) ;
#140=EDGE_CURVE('',#134,#132,#139,.T.) ;
#153=EDGE_CURVE('',#150,#152,#148,.T.) ;
#158=EDGE_CURVE('',#152,#150,#157,.T.) ;
#172=EDGE_CURVE('',#169,#171,#167,.T.) ;
#177=EDGE_CURVE('',#171,#169,#176,.T.) ;
#191=EDGE_CURVE('',#188,#190,#186,.T.) ;
#196=EDGE_CURVE('',#188,#190,#195,.T.) ;
#213=EDGE_CURVE('',#212,#152,#210,.F.) ;
#220=EDGE_CURVE('',#219,#212,#217,.F.) ;
#227=EDGE_CURVE('',#226,#219,#224,.F.) ;
#232=EDGE_CURVE('',#226,#150,#231,.F.) ;
#247=EDGE_CURVE('',#246,#226,#244,.F.) ;
#252=EDGE_CURVE('',#212,#246,#251,.F.) ;
#274=EDGE_CURVE('',#271,#273,#269,.F.) ;
#279=EDGE_CURVE('',#219,#273,#278,.F.) ;
#284=EDGE_CURVE('',#246,#271,#283,.F.) ;
#297=EDGE_CURVE('',#273,#271,#296,.F.) ;
#315=EDGE_CURVE('',#169,#190,#314,.T.) ;
#320=EDGE_CURVE('',#171,#188,#319,.T.) ;
#339=EDGE_CURVE('',#338,#132,#336,.F.) ;
#346=EDGE_CURVE('',#345,#134,#343,.F.) ;
#351=EDGE_CURVE('',#338,#345,#350,.T.) ;
#378=EDGE_CURVE('',#375,#377,#373,.T.) ;
#383=EDGE_CURVE('',#377,#375,#382,.T.) ;
#397=EDGE_CURVE('',#345,#338,#396,.T.) ;
#420=EDGE_CURVE('',#375,#338,#419,.T.) ;
#425=EDGE_CURVE('',#377,#345,#424,.T.) ;
#71=EDGE_LOOP('',(#72,#73)) ;
#100=EDGE_LOOP('',(#101,#102,#103,#104)) ;
#117=EDGE_LOOP('',(#118,#119)) ;
#141=EDGE_LOOP('',(#142,#143)) ;
#159=EDGE_LOOP('',(#160,#161)) ;
#178=EDGE_LOOP('',(#179,#180)) ;
#197=EDGE_LOOP('',(#198,#199)) ;
#233=EDGE_LOOP('',(#234,#235,#236,#237,#238)) ;
#253=EDGE_LOOP('',(#254,#255,#256,#257,#258)) ;
#285=EDGE_LOOP('',(#286,#287,#288,#289,#290)) ;
#298=EDGE_LOOP('',(#299,#300,#301,#302,#303)) ;
#321=EDGE_LOOP('',(#322,#323,#324,#325)) ;
#352=EDGE_LOOP('',(#353,#354,#355,#356)) ;
#358=EDGE_LOOP('',(#359,#360,#361,#362)) ;
#384=EDGE_LOOP('',(#385,#386)) ;
#388=EDGE_LOOP('',(#389,#390)) ;
#398=EDGE_LOOP('',(#399,#400,#401,#402)) ;
#404=EDGE_LOOP('',(#405,#406,#407,#408)) ;
#426=EDGE_LOOP('',(#427,#428,#429,#430)) ;
#438=EDGE_LOOP('',(#439,#440,#441,#442)) ;
#74=FACE_OUTER_BOUND('',#71,.T.) ;
#105=FACE_OUTER_BOUND('',#100,.T.) ;
#120=FACE_OUTER_BOUND('',#117,.T.) ;
#144=FACE_OUTER_BOUND('',#141,.T.) ;
#181=FACE_OUTER_BOUND('',#178,.T.) ;
#200=FACE_OUTER_BOUND('',#197,.T.) ;
#239=FACE_OUTER_BOUND('',#233,.T.) ;
#259=FACE_OUTER_BOUND('',#253,.T.) ;
#291=FACE_OUTER_BOUND('',#285,.T.) ;
#304=FACE_OUTER_BOUND('',#298,.T.) ;
#326=FACE_OUTER_BOUND('',#321,.T.) ;
#357=FACE_OUTER_BOUND('',#352,.T.) ;
#387=FACE_OUTER_BOUND('',#384,.T.) ;
#403=FACE_OUTER_BOUND('',#398,.T.) ;
#431=FACE_OUTER_BOUND('',#426,.T.) ;
#443=FACE_OUTER_BOUND('',#438,.T.) ;
#45=UNCERTAINTY_MEASURE_WITH_UNIT(LENGTH_MEASURE(0.005),#41,'distance_accuracy_value','CONFUSED CURVE UNCERTAINTY') ;
#69=LINE('Line',#66,#68) ;
#84=LINE('Line',#81,#83) ;
#91=LINE('Line',#88,#90) ;
#98=LINE('Line',#95,#97) ;
#176=LINE('Line',#173,#175) ;
#195=LINE('Line',#192,#194) ;
#210=LINE('Line',#207,#209) ;
#231=LINE('Line',#228,#230) ;
#278=LINE('Line',#275,#277) ;
#283=LINE('Line',#280,#282) ;
#314=LINE('Line',#311,#313) ;
#319=LINE('Line',#316,#318) ;
#336=LINE('Line',#333,#335) ;
#343=LINE('Line',#340,#342) ;
#419=LINE('Line',#416,#418) ;
#424=LINE('Line',#421,#423) ;
#2=MECHANICAL_CONTEXT(' ',#1,'mechanical') ;
#24=PERSONAL_ADDRESS(' ',' ',' ',' ',' ',' ',' ',' ',' ',' ',' ',' ',(#22),' ') ;
#56=PLANE('',#55) ;
#80=PLANE('',#79) ;
#111=PLANE('',#110) ;
#126=PLANE('',#125) ;
#310=PLANE('',#309) ;
#369=PLANE('',#368) ;
#43=PLANE_ANGLE_MEASURE_WITH_UNIT(PLANE_ANGLE_MEASURE(0.0174532925199),#42) ;
#7=PRODUCT_CATEGORY('part',$) ;
#9=PRODUCT_CATEGORY_RELATIONSHIP(' ',' ',#7,#8) ;
#6=PRODUCT_DEFINITION_FORMATION_WITH_SPECIFIED_SOURCE('',' ',#5,.NOT_KNOWN.) ;
#8=PRODUCT_RELATED_PRODUCT_CATEGORY('detail',$,(#5)) ;
#50=SHAPE_DEFINITION_REPRESENTATION(#40,#49) ;
#62=VERTEX_POINT('',#61) ;
#64=VERTEX_POINT('',#63) ;
#86=VERTEX_POINT('',#85) ;
#93=VERTEX_POINT('',#92) ;
#132=VERTEX_POINT('',#131) ;
#134=VERTEX_POINT('',#133) ;
#150=VERTEX_POINT('',#149) ;
#152=VERTEX_POINT('',#151) ;
#169=VERTEX_POINT('',#168) ;
#171=VERTEX_POINT('',#170) ;
#188=VERTEX_POINT('',#187) ;
#190=VERTEX_POINT('',#189) ;
#212=VERTEX_POINT('',#211) ;
#219=VERTEX_POINT('',#218) ;
#226=VERTEX_POINT('',#225) ;
#246=VERTEX_POINT('',#245) ;
#271=VERTEX_POINT('',#270) ;
#273=VERTEX_POINT('',#272) ;
#338=VERTEX_POINT('',#337) ;
#345=VERTEX_POINT('',#344) ;
#375=VERTEX_POINT('',#374) ;
#377=VERTEX_POINT('',#376) ;
#41=(LENGTH_UNIT()NAMED_UNIT(*)SI_UNIT(.MILLI.,.METRE.)) ;
#42=(NAMED_UNIT(*)PLANE_ANGLE_UNIT()SI_UNIT($,.RADIAN.)) ;
#44=(NAMED_UNIT(*)SI_UNIT($,.STERADIAN.)SOLID_ANGLE_UNIT()) ;
#46=(GEOMETRIC_REPRESENTATION_CONTEXT(3)GLOBAL_UNCERTAINTY_ASSIGNED_CONTEXT((#45))GLOBAL_UNIT_ASSIGNED_CONTEXT((#41,#42,#44))REPRESENTATION_CONTEXT(' ',' ')) ;
ENDSEC;
END-ISO-10303-21;
