ISO-10303-21;
HEADER;
/* Generated by software containing ST-Developer
 * from STEP Tools, Inc. (www.steptools.com) 
 */

FILE_DESCRIPTION(
/* description */ (''),
/* implementation_level */ '2;1');

FILE_NAME(
/* name */ 'E:/CNC/Sous-traitance/Table CNC3_Plaque 1 v2.step',
/* time_stamp */ '2019-02-15T09:36:20+01:00',
/* author */ ('jl.gautier'),
/* organization */ (''),
/* preprocessor_version */ 'ST-DEVELOPER v17.2',
/* originating_system */ 'Autodesk Translation Framework v7.6.0.251',
/* authorisation */ '');

FILE_SCHEMA (('AUTOMOTIVE_DESIGN { 1 0 10303 214 3 1 1 }'));
ENDSEC;

DATA;
#10=MECHANICAL_DESIGN_GEOMETRIC_PRESENTATION_REPRESENTATION('',(#13),#630);
#11=SHAPE_REPRESENTATION_RELATIONSHIP('SRR','None',#637,#12);
#12=ADVANCED_BREP_SHAPE_REPRESENTATION('',(#14),#629);
#13=STYLED_ITEM('',(#646),#14);
#14=MANIFOLD_SOLID_BREP('Body11',#366);
#15=FACE_BOUND('',#80,.T.);
#16=FACE_BOUND('',#81,.T.);
#17=FACE_BOUND('',#82,.T.);
#18=FACE_BOUND('',#85,.T.);
#19=FACE_BOUND('',#86,.T.);
#20=FACE_BOUND('',#87,.T.);
#21=FACE_BOUND('',#88,.T.);
#22=FACE_BOUND('',#89,.T.);
#23=FACE_BOUND('',#90,.T.);
#24=FACE_BOUND('',#91,.T.);
#25=FACE_BOUND('',#92,.T.);
#26=FACE_BOUND('',#94,.T.);
#27=FACE_BOUND('',#95,.T.);
#28=FACE_BOUND('',#96,.T.);
#29=FACE_BOUND('',#97,.T.);
#30=FACE_BOUND('',#98,.T.);
#31=FACE_BOUND('',#99,.T.);
#32=FACE_BOUND('',#100,.T.);
#33=FACE_BOUND('',#101,.T.);
#34=PLANE('',#383);
#35=PLANE('',#387);
#36=PLANE('',#391);
#37=PLANE('',#416);
#38=PLANE('',#417);
#39=PLANE('',#418);
#40=PLANE('',#419);
#41=PLANE('',#420);
#42=PLANE('',#421);
#43=FACE_OUTER_BOUND('',#63,.T.);
#44=FACE_OUTER_BOUND('',#64,.T.);
#45=FACE_OUTER_BOUND('',#65,.T.);
#46=FACE_OUTER_BOUND('',#66,.T.);
#47=FACE_OUTER_BOUND('',#67,.T.);
#48=FACE_OUTER_BOUND('',#68,.T.);
#49=FACE_OUTER_BOUND('',#69,.T.);
#50=FACE_OUTER_BOUND('',#70,.T.);
#51=FACE_OUTER_BOUND('',#71,.T.);
#52=FACE_OUTER_BOUND('',#72,.T.);
#53=FACE_OUTER_BOUND('',#73,.T.);
#54=FACE_OUTER_BOUND('',#74,.T.);
#55=FACE_OUTER_BOUND('',#75,.T.);
#56=FACE_OUTER_BOUND('',#76,.T.);
#57=FACE_OUTER_BOUND('',#77,.T.);
#58=FACE_OUTER_BOUND('',#78,.T.);
#59=FACE_OUTER_BOUND('',#79,.T.);
#60=FACE_OUTER_BOUND('',#83,.T.);
#61=FACE_OUTER_BOUND('',#84,.T.);
#62=FACE_OUTER_BOUND('',#93,.T.);
#63=EDGE_LOOP('',(#245,#246,#247,#248));
#64=EDGE_LOOP('',(#249));
#65=EDGE_LOOP('',(#250,#251,#252,#253));
#66=EDGE_LOOP('',(#254));
#67=EDGE_LOOP('',(#255,#256,#257,#258));
#68=EDGE_LOOP('',(#259));
#69=EDGE_LOOP('',(#260,#261,#262,#263));
#70=EDGE_LOOP('',(#264,#265,#266,#267));
#71=EDGE_LOOP('',(#268,#269,#270,#271));
#72=EDGE_LOOP('',(#272,#273,#274,#275));
#73=EDGE_LOOP('',(#276,#277,#278,#279));
#74=EDGE_LOOP('',(#280,#281,#282,#283));
#75=EDGE_LOOP('',(#284,#285,#286,#287));
#76=EDGE_LOOP('',(#288,#289,#290,#291));
#77=EDGE_LOOP('',(#292,#293,#294,#295));
#78=EDGE_LOOP('',(#296,#297,#298,#299));
#79=EDGE_LOOP('',(#300,#301,#302,#303));
#80=EDGE_LOOP('',(#304));
#81=EDGE_LOOP('',(#305));
#82=EDGE_LOOP('',(#306));
#83=EDGE_LOOP('',(#307,#308,#309,#310));
#84=EDGE_LOOP('',(#311,#312,#313,#314));
#85=EDGE_LOOP('',(#315));
#86=EDGE_LOOP('',(#316));
#87=EDGE_LOOP('',(#317));
#88=EDGE_LOOP('',(#318));
#89=EDGE_LOOP('',(#319));
#90=EDGE_LOOP('',(#320));
#91=EDGE_LOOP('',(#321));
#92=EDGE_LOOP('',(#322));
#93=EDGE_LOOP('',(#323,#324,#325,#326));
#94=EDGE_LOOP('',(#327));
#95=EDGE_LOOP('',(#328));
#96=EDGE_LOOP('',(#329));
#97=EDGE_LOOP('',(#330));
#98=EDGE_LOOP('',(#331));
#99=EDGE_LOOP('',(#332));
#100=EDGE_LOOP('',(#333));
#101=EDGE_LOOP('',(#334));
#102=LINE('',#536,#125);
#103=LINE('',#543,#126);
#104=LINE('',#550,#127);
#105=LINE('',#557,#128);
#106=LINE('',#563,#129);
#107=LINE('',#569,#130);
#108=LINE('',#575,#131);
#109=LINE('',#581,#132);
#110=LINE('',#587,#133);
#111=LINE('',#593,#134);
#112=LINE('',#599,#135);
#113=LINE('',#604,#136);
#114=LINE('',#606,#137);
#115=LINE('',#608,#138);
#116=LINE('',#609,#139);
#117=LINE('',#612,#140);
#118=LINE('',#614,#141);
#119=LINE('',#615,#142);
#120=LINE('',#618,#143);
#121=LINE('',#620,#144);
#122=LINE('',#621,#145);
#123=LINE('',#623,#146);
#124=LINE('',#624,#147);
#125=VECTOR('',#428,2.5);
#126=VECTOR('',#437,2.5);
#127=VECTOR('',#446,2.5);
#128=VECTOR('',#455,2.5);
#129=VECTOR('',#462,2.5);
#130=VECTOR('',#469,2.5);
#131=VECTOR('',#476,2.5);
#132=VECTOR('',#483,2.5);
#133=VECTOR('',#490,2.5);
#134=VECTOR('',#497,2.5);
#135=VECTOR('',#504,2.5);
#136=VECTOR('',#509,10.);
#137=VECTOR('',#510,10.);
#138=VECTOR('',#511,10.);
#139=VECTOR('',#512,10.);
#140=VECTOR('',#515,10.);
#141=VECTOR('',#516,10.);
#142=VECTOR('',#517,10.);
#143=VECTOR('',#520,10.);
#144=VECTOR('',#521,10.);
#145=VECTOR('',#522,10.);
#146=VECTOR('',#525,10.);
#147=VECTOR('',#526,10.);
#148=CIRCLE('',#381,2.117);
#149=CIRCLE('',#382,2.117);
#150=CIRCLE('',#385,2.117);
#151=CIRCLE('',#386,2.117);
#152=CIRCLE('',#389,2.117);
#153=CIRCLE('',#390,2.117);
#154=CIRCLE('',#393,2.5);
#155=CIRCLE('',#394,2.5);
#156=CIRCLE('',#396,2.5);
#157=CIRCLE('',#397,2.5);
#158=CIRCLE('',#399,2.5);
#159=CIRCLE('',#400,2.5);
#160=CIRCLE('',#402,2.5);
#161=CIRCLE('',#403,2.5);
#162=CIRCLE('',#405,2.5);
#163=CIRCLE('',#406,2.5);
#164=CIRCLE('',#408,2.5);
#165=CIRCLE('',#409,2.5);
#166=CIRCLE('',#411,2.5);
#167=CIRCLE('',#412,2.5);
#168=CIRCLE('',#414,2.5);
#169=CIRCLE('',#415,2.5);
#170=VERTEX_POINT('',#533);
#171=VERTEX_POINT('',#535);
#172=VERTEX_POINT('',#540);
#173=VERTEX_POINT('',#542);
#174=VERTEX_POINT('',#547);
#175=VERTEX_POINT('',#549);
#176=VERTEX_POINT('',#554);
#177=VERTEX_POINT('',#556);
#178=VERTEX_POINT('',#560);
#179=VERTEX_POINT('',#562);
#180=VERTEX_POINT('',#566);
#181=VERTEX_POINT('',#568);
#182=VERTEX_POINT('',#572);
#183=VERTEX_POINT('',#574);
#184=VERTEX_POINT('',#578);
#185=VERTEX_POINT('',#580);
#186=VERTEX_POINT('',#584);
#187=VERTEX_POINT('',#586);
#188=VERTEX_POINT('',#590);
#189=VERTEX_POINT('',#592);
#190=VERTEX_POINT('',#596);
#191=VERTEX_POINT('',#598);
#192=VERTEX_POINT('',#602);
#193=VERTEX_POINT('',#603);
#194=VERTEX_POINT('',#605);
#195=VERTEX_POINT('',#607);
#196=VERTEX_POINT('',#611);
#197=VERTEX_POINT('',#613);
#198=VERTEX_POINT('',#617);
#199=VERTEX_POINT('',#619);
#200=EDGE_CURVE('',#170,#170,#148,.T.);
#201=EDGE_CURVE('',#170,#171,#102,.T.);
#202=EDGE_CURVE('',#171,#171,#149,.T.);
#203=EDGE_CURVE('',#172,#172,#150,.T.);
#204=EDGE_CURVE('',#172,#173,#103,.T.);
#205=EDGE_CURVE('',#173,#173,#151,.T.);
#206=EDGE_CURVE('',#174,#174,#152,.T.);
#207=EDGE_CURVE('',#174,#175,#104,.T.);
#208=EDGE_CURVE('',#175,#175,#153,.T.);
#209=EDGE_CURVE('',#176,#176,#154,.T.);
#210=EDGE_CURVE('',#176,#177,#105,.T.);
#211=EDGE_CURVE('',#177,#177,#155,.T.);
#212=EDGE_CURVE('',#178,#178,#156,.T.);
#213=EDGE_CURVE('',#178,#179,#106,.T.);
#214=EDGE_CURVE('',#179,#179,#157,.T.);
#215=EDGE_CURVE('',#180,#180,#158,.T.);
#216=EDGE_CURVE('',#180,#181,#107,.T.);
#217=EDGE_CURVE('',#181,#181,#159,.T.);
#218=EDGE_CURVE('',#182,#182,#160,.T.);
#219=EDGE_CURVE('',#182,#183,#108,.T.);
#220=EDGE_CURVE('',#183,#183,#161,.T.);
#221=EDGE_CURVE('',#184,#184,#162,.T.);
#222=EDGE_CURVE('',#184,#185,#109,.T.);
#223=EDGE_CURVE('',#185,#185,#163,.T.);
#224=EDGE_CURVE('',#186,#186,#164,.T.);
#225=EDGE_CURVE('',#186,#187,#110,.T.);
#226=EDGE_CURVE('',#187,#187,#165,.T.);
#227=EDGE_CURVE('',#188,#188,#166,.T.);
#228=EDGE_CURVE('',#188,#189,#111,.T.);
#229=EDGE_CURVE('',#189,#189,#167,.T.);
#230=EDGE_CURVE('',#190,#190,#168,.T.);
#231=EDGE_CURVE('',#190,#191,#112,.T.);
#232=EDGE_CURVE('',#191,#191,#169,.T.);
#233=EDGE_CURVE('',#192,#193,#113,.T.);
#234=EDGE_CURVE('',#192,#194,#114,.T.);
#235=EDGE_CURVE('',#195,#194,#115,.T.);
#236=EDGE_CURVE('',#193,#195,#116,.T.);
#237=EDGE_CURVE('',#196,#193,#117,.T.);
#238=EDGE_CURVE('',#197,#195,#118,.T.);
#239=EDGE_CURVE('',#196,#197,#119,.T.);
#240=EDGE_CURVE('',#198,#196,#120,.T.);
#241=EDGE_CURVE('',#199,#197,#121,.T.);
#242=EDGE_CURVE('',#198,#199,#122,.T.);
#243=EDGE_CURVE('',#192,#198,#123,.T.);
#244=EDGE_CURVE('',#194,#199,#124,.T.);
#245=ORIENTED_EDGE('',*,*,#200,.F.);
#246=ORIENTED_EDGE('',*,*,#201,.T.);
#247=ORIENTED_EDGE('',*,*,#202,.T.);
#248=ORIENTED_EDGE('',*,*,#201,.F.);
#249=ORIENTED_EDGE('',*,*,#202,.F.);
#250=ORIENTED_EDGE('',*,*,#203,.F.);
#251=ORIENTED_EDGE('',*,*,#204,.T.);
#252=ORIENTED_EDGE('',*,*,#205,.T.);
#253=ORIENTED_EDGE('',*,*,#204,.F.);
#254=ORIENTED_EDGE('',*,*,#205,.F.);
#255=ORIENTED_EDGE('',*,*,#206,.F.);
#256=ORIENTED_EDGE('',*,*,#207,.T.);
#257=ORIENTED_EDGE('',*,*,#208,.T.);
#258=ORIENTED_EDGE('',*,*,#207,.F.);
#259=ORIENTED_EDGE('',*,*,#208,.F.);
#260=ORIENTED_EDGE('',*,*,#209,.F.);
#261=ORIENTED_EDGE('',*,*,#210,.T.);
#262=ORIENTED_EDGE('',*,*,#211,.T.);
#263=ORIENTED_EDGE('',*,*,#210,.F.);
#264=ORIENTED_EDGE('',*,*,#212,.F.);
#265=ORIENTED_EDGE('',*,*,#213,.T.);
#266=ORIENTED_EDGE('',*,*,#214,.T.);
#267=ORIENTED_EDGE('',*,*,#213,.F.);
#268=ORIENTED_EDGE('',*,*,#215,.F.);
#269=ORIENTED_EDGE('',*,*,#216,.T.);
#270=ORIENTED_EDGE('',*,*,#217,.T.);
#271=ORIENTED_EDGE('',*,*,#216,.F.);
#272=ORIENTED_EDGE('',*,*,#218,.F.);
#273=ORIENTED_EDGE('',*,*,#219,.T.);
#274=ORIENTED_EDGE('',*,*,#220,.T.);
#275=ORIENTED_EDGE('',*,*,#219,.F.);
#276=ORIENTED_EDGE('',*,*,#221,.F.);
#277=ORIENTED_EDGE('',*,*,#222,.T.);
#278=ORIENTED_EDGE('',*,*,#223,.T.);
#279=ORIENTED_EDGE('',*,*,#222,.F.);
#280=ORIENTED_EDGE('',*,*,#224,.F.);
#281=ORIENTED_EDGE('',*,*,#225,.T.);
#282=ORIENTED_EDGE('',*,*,#226,.T.);
#283=ORIENTED_EDGE('',*,*,#225,.F.);
#284=ORIENTED_EDGE('',*,*,#227,.F.);
#285=ORIENTED_EDGE('',*,*,#228,.T.);
#286=ORIENTED_EDGE('',*,*,#229,.T.);
#287=ORIENTED_EDGE('',*,*,#228,.F.);
#288=ORIENTED_EDGE('',*,*,#230,.F.);
#289=ORIENTED_EDGE('',*,*,#231,.T.);
#290=ORIENTED_EDGE('',*,*,#232,.T.);
#291=ORIENTED_EDGE('',*,*,#231,.F.);
#292=ORIENTED_EDGE('',*,*,#233,.F.);
#293=ORIENTED_EDGE('',*,*,#234,.T.);
#294=ORIENTED_EDGE('',*,*,#235,.F.);
#295=ORIENTED_EDGE('',*,*,#236,.F.);
#296=ORIENTED_EDGE('',*,*,#237,.T.);
#297=ORIENTED_EDGE('',*,*,#236,.T.);
#298=ORIENTED_EDGE('',*,*,#238,.F.);
#299=ORIENTED_EDGE('',*,*,#239,.F.);
#300=ORIENTED_EDGE('',*,*,#240,.T.);
#301=ORIENTED_EDGE('',*,*,#239,.T.);
#302=ORIENTED_EDGE('',*,*,#241,.F.);
#303=ORIENTED_EDGE('',*,*,#242,.F.);
#304=ORIENTED_EDGE('',*,*,#200,.T.);
#305=ORIENTED_EDGE('',*,*,#203,.T.);
#306=ORIENTED_EDGE('',*,*,#206,.T.);
#307=ORIENTED_EDGE('',*,*,#243,.T.);
#308=ORIENTED_EDGE('',*,*,#242,.T.);
#309=ORIENTED_EDGE('',*,*,#244,.F.);
#310=ORIENTED_EDGE('',*,*,#234,.F.);
#311=ORIENTED_EDGE('',*,*,#244,.T.);
#312=ORIENTED_EDGE('',*,*,#241,.T.);
#313=ORIENTED_EDGE('',*,*,#238,.T.);
#314=ORIENTED_EDGE('',*,*,#235,.T.);
#315=ORIENTED_EDGE('',*,*,#230,.T.);
#316=ORIENTED_EDGE('',*,*,#227,.T.);
#317=ORIENTED_EDGE('',*,*,#224,.T.);
#318=ORIENTED_EDGE('',*,*,#221,.T.);
#319=ORIENTED_EDGE('',*,*,#218,.T.);
#320=ORIENTED_EDGE('',*,*,#215,.T.);
#321=ORIENTED_EDGE('',*,*,#212,.T.);
#322=ORIENTED_EDGE('',*,*,#209,.T.);
#323=ORIENTED_EDGE('',*,*,#243,.F.);
#324=ORIENTED_EDGE('',*,*,#233,.T.);
#325=ORIENTED_EDGE('',*,*,#237,.F.);
#326=ORIENTED_EDGE('',*,*,#240,.F.);
#327=ORIENTED_EDGE('',*,*,#232,.F.);
#328=ORIENTED_EDGE('',*,*,#229,.F.);
#329=ORIENTED_EDGE('',*,*,#226,.F.);
#330=ORIENTED_EDGE('',*,*,#223,.F.);
#331=ORIENTED_EDGE('',*,*,#220,.F.);
#332=ORIENTED_EDGE('',*,*,#217,.F.);
#333=ORIENTED_EDGE('',*,*,#214,.F.);
#334=ORIENTED_EDGE('',*,*,#211,.F.);
#335=CYLINDRICAL_SURFACE('',#380,2.117);
#336=CYLINDRICAL_SURFACE('',#384,2.117);
#337=CYLINDRICAL_SURFACE('',#388,2.117);
#338=CYLINDRICAL_SURFACE('',#392,2.5);
#339=CYLINDRICAL_SURFACE('',#395,2.5);
#340=CYLINDRICAL_SURFACE('',#398,2.5);
#341=CYLINDRICAL_SURFACE('',#401,2.5);
#342=CYLINDRICAL_SURFACE('',#404,2.5);
#343=CYLINDRICAL_SURFACE('',#407,2.5);
#344=CYLINDRICAL_SURFACE('',#410,2.5);
#345=CYLINDRICAL_SURFACE('',#413,2.5);
#346=ADVANCED_FACE('',(#43),#335,.F.);
#347=ADVANCED_FACE('',(#44),#34,.T.);
#348=ADVANCED_FACE('',(#45),#336,.F.);
#349=ADVANCED_FACE('',(#46),#35,.T.);
#350=ADVANCED_FACE('',(#47),#337,.F.);
#351=ADVANCED_FACE('',(#48),#36,.T.);
#352=ADVANCED_FACE('',(#49),#338,.F.);
#353=ADVANCED_FACE('',(#50),#339,.F.);
#354=ADVANCED_FACE('',(#51),#340,.F.);
#355=ADVANCED_FACE('',(#52),#341,.F.);
#356=ADVANCED_FACE('',(#53),#342,.F.);
#357=ADVANCED_FACE('',(#54),#343,.F.);
#358=ADVANCED_FACE('',(#55),#344,.F.);
#359=ADVANCED_FACE('',(#56),#345,.F.);
#360=ADVANCED_FACE('',(#57),#37,.T.);
#361=ADVANCED_FACE('',(#58),#38,.T.);
#362=ADVANCED_FACE('',(#59,#15,#16,#17),#39,.T.);
#363=ADVANCED_FACE('',(#60),#40,.T.);
#364=ADVANCED_FACE('',(#61,#18,#19,#20,#21,#22,#23,#24,#25),#41,.T.);
#365=ADVANCED_FACE('',(#62,#26,#27,#28,#29,#30,#31,#32,#33),#42,.F.);
#366=CLOSED_SHELL('',(#346,#347,#348,#349,#350,#351,#352,#353,#354,#355,
#356,#357,#358,#359,#360,#361,#362,#363,#364,#365));
#367=DERIVED_UNIT_ELEMENT(#369,1.);
#368=DERIVED_UNIT_ELEMENT(#632,3.);
#369=(
MASS_UNIT()
NAMED_UNIT(*)
SI_UNIT(.KILO.,.GRAM.)
);
#370=DERIVED_UNIT((#367,#368));
#371=MEASURE_REPRESENTATION_ITEM('density measure',
POSITIVE_RATIO_MEASURE(2700.),#370);
#372=PROPERTY_DEFINITION_REPRESENTATION(#377,#374);
#373=PROPERTY_DEFINITION_REPRESENTATION(#378,#375);
#374=REPRESENTATION('material name',(#376),#629);
#375=REPRESENTATION('density',(#371),#629);
#376=DESCRIPTIVE_REPRESENTATION_ITEM('Aluminum','Aluminum');
#377=PROPERTY_DEFINITION('material property','material name',#639);
#378=PROPERTY_DEFINITION('material property','density of part',#639);
#379=AXIS2_PLACEMENT_3D('placement',#531,#422,#423);
#380=AXIS2_PLACEMENT_3D('',#532,#424,#425);
#381=AXIS2_PLACEMENT_3D('',#534,#426,#427);
#382=AXIS2_PLACEMENT_3D('',#537,#429,#430);
#383=AXIS2_PLACEMENT_3D('',#538,#431,#432);
#384=AXIS2_PLACEMENT_3D('',#539,#433,#434);
#385=AXIS2_PLACEMENT_3D('',#541,#435,#436);
#386=AXIS2_PLACEMENT_3D('',#544,#438,#439);
#387=AXIS2_PLACEMENT_3D('',#545,#440,#441);
#388=AXIS2_PLACEMENT_3D('',#546,#442,#443);
#389=AXIS2_PLACEMENT_3D('',#548,#444,#445);
#390=AXIS2_PLACEMENT_3D('',#551,#447,#448);
#391=AXIS2_PLACEMENT_3D('',#552,#449,#450);
#392=AXIS2_PLACEMENT_3D('',#553,#451,#452);
#393=AXIS2_PLACEMENT_3D('',#555,#453,#454);
#394=AXIS2_PLACEMENT_3D('',#558,#456,#457);
#395=AXIS2_PLACEMENT_3D('',#559,#458,#459);
#396=AXIS2_PLACEMENT_3D('',#561,#460,#461);
#397=AXIS2_PLACEMENT_3D('',#564,#463,#464);
#398=AXIS2_PLACEMENT_3D('',#565,#465,#466);
#399=AXIS2_PLACEMENT_3D('',#567,#467,#468);
#400=AXIS2_PLACEMENT_3D('',#570,#470,#471);
#401=AXIS2_PLACEMENT_3D('',#571,#472,#473);
#402=AXIS2_PLACEMENT_3D('',#573,#474,#475);
#403=AXIS2_PLACEMENT_3D('',#576,#477,#478);
#404=AXIS2_PLACEMENT_3D('',#577,#479,#480);
#405=AXIS2_PLACEMENT_3D('',#579,#481,#482);
#406=AXIS2_PLACEMENT_3D('',#582,#484,#485);
#407=AXIS2_PLACEMENT_3D('',#583,#486,#487);
#408=AXIS2_PLACEMENT_3D('',#585,#488,#489);
#409=AXIS2_PLACEMENT_3D('',#588,#491,#492);
#410=AXIS2_PLACEMENT_3D('',#589,#493,#494);
#411=AXIS2_PLACEMENT_3D('',#591,#495,#496);
#412=AXIS2_PLACEMENT_3D('',#594,#498,#499);
#413=AXIS2_PLACEMENT_3D('',#595,#500,#501);
#414=AXIS2_PLACEMENT_3D('',#597,#502,#503);
#415=AXIS2_PLACEMENT_3D('',#600,#505,#506);
#416=AXIS2_PLACEMENT_3D('',#601,#507,#508);
#417=AXIS2_PLACEMENT_3D('',#610,#513,#514);
#418=AXIS2_PLACEMENT_3D('',#616,#518,#519);
#419=AXIS2_PLACEMENT_3D('',#622,#523,#524);
#420=AXIS2_PLACEMENT_3D('',#625,#527,#528);
#421=AXIS2_PLACEMENT_3D('',#626,#529,#530);
#422=DIRECTION('axis',(0.,0.,1.));
#423=DIRECTION('refdir',(1.,0.,0.));
#424=DIRECTION('center_axis',(-1.13797860024079E-15,6.3948846218409E-14,
-1.));
#425=DIRECTION('ref_axis',(1.,4.1829726343726E-31,-1.13797860024079E-15));
#426=DIRECTION('center_axis',(-1.131437477325E-15,0.,-1.));
#427=DIRECTION('ref_axis',(1.,4.1829726343726E-31,-1.13797860024079E-15));
#428=DIRECTION('',(-1.13797860024079E-15,6.3948846218409E-14,-1.));
#429=DIRECTION('center_axis',(-1.131437477325E-15,6.3948846218409E-14,-1.));
#430=DIRECTION('ref_axis',(1.,4.1829726343726E-31,-1.13797860024079E-15));
#431=DIRECTION('center_axis',(1.131437477325E-15,-6.3948846218409E-14,1.));
#432=DIRECTION('ref_axis',(1.,0.,-1.131437477325E-15));
#433=DIRECTION('center_axis',(-1.11022302462516E-15,6.3948846218409E-14,
-1.));
#434=DIRECTION('ref_axis',(1.,-1.35663977331002E-30,-1.11022302462516E-15));
#435=DIRECTION('center_axis',(-1.131437477325E-15,0.,-1.));
#436=DIRECTION('ref_axis',(1.,-1.35663977331002E-30,-1.11022302462516E-15));
#437=DIRECTION('',(-1.11022302462516E-15,6.3948846218409E-14,-1.));
#438=DIRECTION('center_axis',(-1.131437477325E-15,6.3948846218409E-14,-1.));
#439=DIRECTION('ref_axis',(1.,-1.35663977331002E-30,-1.11022302462516E-15));
#440=DIRECTION('center_axis',(1.131437477325E-15,-6.3948846218409E-14,1.));
#441=DIRECTION('ref_axis',(1.,0.,-1.131437477325E-15));
#442=DIRECTION('center_axis',(-1.33226762955019E-15,6.3948846218409E-14,
-1.));
#443=DIRECTION('ref_axis',(1.,1.28428565206682E-29,-1.33226762955019E-15));
#444=DIRECTION('center_axis',(-1.131437477325E-15,0.,-1.));
#445=DIRECTION('ref_axis',(1.,1.28428565206682E-29,-1.33226762955019E-15));
#446=DIRECTION('',(-1.33226762955019E-15,6.3948846218409E-14,-1.));
#447=DIRECTION('center_axis',(-1.131437477325E-15,6.3948846218409E-14,-1.));
#448=DIRECTION('ref_axis',(1.,1.28428565206682E-29,-1.33226762955019E-15));
#449=DIRECTION('center_axis',(1.131437477325E-15,-6.3948846218409E-14,1.));
#450=DIRECTION('ref_axis',(1.,0.,-1.131437477325E-15));
#451=DIRECTION('center_axis',(0.,1.,0.));
#452=DIRECTION('ref_axis',(-1.,0.,-3.12409548273782E-43));
#453=DIRECTION('center_axis',(0.,-1.,0.));
#454=DIRECTION('ref_axis',(-1.,0.,-3.12409548273782E-43));
#455=DIRECTION('',(0.,-1.,0.));
#456=DIRECTION('center_axis',(0.,-1.,0.));
#457=DIRECTION('ref_axis',(-1.,0.,-3.12409548273782E-43));
#458=DIRECTION('center_axis',(0.,1.,0.));
#459=DIRECTION('ref_axis',(-1.,0.,-3.12409548273782E-43));
#460=DIRECTION('center_axis',(-1.92859210705108E-56,-1.,2.37766336953423E-102));
#461=DIRECTION('ref_axis',(-1.,1.92859210705108E-56,-3.12409548273782E-43));
#462=DIRECTION('',(0.,-1.,0.));
#463=DIRECTION('center_axis',(-1.92859210705108E-56,-1.,2.37766336953423E-102));
#464=DIRECTION('ref_axis',(-1.,1.92859210705108E-56,-3.12409548273782E-43));
#465=DIRECTION('center_axis',(0.,1.,0.));
#466=DIRECTION('ref_axis',(-1.,0.,-3.12409548273782E-43));
#467=DIRECTION('center_axis',(0.,-1.,0.));
#468=DIRECTION('ref_axis',(-1.,0.,-3.12409548273782E-43));
#469=DIRECTION('',(0.,-1.,0.));
#470=DIRECTION('center_axis',(0.,-1.,0.));
#471=DIRECTION('ref_axis',(-1.,0.,-3.12409548273782E-43));
#472=DIRECTION('center_axis',(0.,1.,0.));
#473=DIRECTION('ref_axis',(-1.,0.,-3.12409548273782E-43));
#474=DIRECTION('center_axis',(-1.92859210705108E-56,-1.,2.37766336953423E-102));
#475=DIRECTION('ref_axis',(-1.,1.92859210705108E-56,-3.12409548273782E-43));
#476=DIRECTION('',(0.,-1.,0.));
#477=DIRECTION('center_axis',(-1.92859210705108E-56,-1.,2.37766336953423E-102));
#478=DIRECTION('ref_axis',(-1.,1.92859210705108E-56,-3.12409548273782E-43));
#479=DIRECTION('center_axis',(0.,1.,0.));
#480=DIRECTION('ref_axis',(-1.,0.,-3.12409548273782E-43));
#481=DIRECTION('center_axis',(0.,-1.,0.));
#482=DIRECTION('ref_axis',(-1.,0.,-3.12409548273782E-43));
#483=DIRECTION('',(0.,-1.,0.));
#484=DIRECTION('center_axis',(0.,-1.,0.));
#485=DIRECTION('ref_axis',(-1.,0.,-3.12409548273782E-43));
#486=DIRECTION('center_axis',(0.,1.,0.));
#487=DIRECTION('ref_axis',(-1.,0.,-3.12409548273782E-43));
#488=DIRECTION('center_axis',(-1.92859210705108E-56,-1.,2.37766336953423E-102));
#489=DIRECTION('ref_axis',(-1.,1.92859210705108E-56,-3.12409548273782E-43));
#490=DIRECTION('',(0.,-1.,0.));
#491=DIRECTION('center_axis',(-1.92859210705108E-56,-1.,2.37766336953423E-102));
#492=DIRECTION('ref_axis',(-1.,1.92859210705108E-56,-3.12409548273782E-43));
#493=DIRECTION('center_axis',(0.,1.,0.));
#494=DIRECTION('ref_axis',(-1.,0.,-3.12409548273782E-43));
#495=DIRECTION('center_axis',(0.,-1.,0.));
#496=DIRECTION('ref_axis',(-1.,0.,-3.12409548273782E-43));
#497=DIRECTION('',(0.,-1.,0.));
#498=DIRECTION('center_axis',(0.,-1.,0.));
#499=DIRECTION('ref_axis',(-1.,0.,-3.12409548273782E-43));
#500=DIRECTION('center_axis',(0.,1.,0.));
#501=DIRECTION('ref_axis',(-1.,0.,-3.12409548273782E-43));
#502=DIRECTION('center_axis',(-1.92859210705108E-56,-1.,2.37766336953423E-102));
#503=DIRECTION('ref_axis',(-1.,1.92859210705108E-56,-3.12409548273782E-43));
#504=DIRECTION('',(0.,-1.,0.));
#505=DIRECTION('center_axis',(-1.92859210705108E-56,-1.,2.37766336953423E-102));
#506=DIRECTION('ref_axis',(-1.,1.92859210705108E-56,-3.12409548273782E-43));
#507=DIRECTION('center_axis',(-1.93784382480027E-16,0.,-1.));
#508=DIRECTION('ref_axis',(-1.,1.06145879941447E-30,1.93784382480027E-16));
#509=DIRECTION('',(1.,-1.06145879941447E-30,-1.93784382480027E-16));
#510=DIRECTION('',(0.,1.,0.));
#511=DIRECTION('',(-1.,1.06145879941447E-30,1.93784382480027E-16));
#512=DIRECTION('',(0.,1.,0.));
#513=DIRECTION('center_axis',(1.,0.,3.12409548273782E-43));
#514=DIRECTION('ref_axis',(3.12409548273782E-43,0.,-1.));
#515=DIRECTION('',(3.12409548273782E-43,0.,-1.));
#516=DIRECTION('',(3.12409548273782E-43,0.,-1.));
#517=DIRECTION('',(0.,1.,0.));
#518=DIRECTION('center_axis',(1.131437477325E-15,0.,1.));
#519=DIRECTION('ref_axis',(1.,0.,-1.131437477325E-15));
#520=DIRECTION('',(1.,0.,-1.131437477325E-15));
#521=DIRECTION('',(1.,0.,-1.131437477325E-15));
#522=DIRECTION('',(0.,1.,0.));
#523=DIRECTION('center_axis',(-1.,0.,5.3720468933476E-17));
#524=DIRECTION('ref_axis',(5.3720468933476E-17,0.,1.));
#525=DIRECTION('',(5.3720468933476E-17,0.,1.));
#526=DIRECTION('',(5.3720468933476E-17,0.,1.));
#527=DIRECTION('center_axis',(0.,1.,0.));
#528=DIRECTION('ref_axis',(-1.,0.,-3.12409548273782E-43));
#529=DIRECTION('center_axis',(0.,1.,0.));
#530=DIRECTION('ref_axis',(-1.,0.,-3.12409548273782E-43));
#531=CARTESIAN_POINT('',(0.,0.,0.));
#532=CARTESIAN_POINT('Origin',(0.299999999999995,38.,107.08216770964));
#533=CARTESIAN_POINT('',(-1.81700000000001,38.,107.082167709638));
#534=CARTESIAN_POINT('Origin',(0.299999999999995,38.,107.082167709638));
#535=CARTESIAN_POINT('',(-1.81700000000003,38.0000000000013,87.0821677096397));
#536=CARTESIAN_POINT('',(-1.81700000000001,38.,107.08216770964));
#537=CARTESIAN_POINT('Origin',(0.299999999999972,38.0000000000013,87.0821677096397));
#538=CARTESIAN_POINT('Origin',(0.299999999999972,38.0000000000013,87.0821677096397));
#539=CARTESIAN_POINT('Origin',(40.3,38.,107.08216770964));
#540=CARTESIAN_POINT('',(38.183,38.,107.082167709638));
#541=CARTESIAN_POINT('Origin',(40.3,38.,107.082167709638));
#542=CARTESIAN_POINT('',(38.183,38.0000000000013,87.0821677096397));
#543=CARTESIAN_POINT('',(38.183,38.,107.08216770964));
#544=CARTESIAN_POINT('Origin',(40.3,38.0000000000013,87.0821677096397));
#545=CARTESIAN_POINT('Origin',(40.3,38.0000000000013,87.0821677096397));
#546=CARTESIAN_POINT('Origin',(80.3,38.,107.08216770964));
#547=CARTESIAN_POINT('',(78.183,38.,107.082167709638));
#548=CARTESIAN_POINT('Origin',(80.3,38.,107.082167709638));
#549=CARTESIAN_POINT('',(78.1829999999999,38.0000000000013,87.0821677096397));
#550=CARTESIAN_POINT('',(78.183,38.,107.08216770964));
#551=CARTESIAN_POINT('Origin',(80.2999999999999,38.0000000000013,87.0821677096397));
#552=CARTESIAN_POINT('Origin',(80.2999999999999,38.0000000000013,87.0821677096397));
#553=CARTESIAN_POINT('Origin',(95.2556813608008,33.,91.0821677096389));
#554=CARTESIAN_POINT('',(97.7556813608008,43.,91.0821677096389));
#555=CARTESIAN_POINT('Origin',(95.2556813608008,43.,91.0821677096389));
#556=CARTESIAN_POINT('',(97.7556813608008,33.,91.0821677096389));
#557=CARTESIAN_POINT('',(97.7556813608008,33.,91.0821677096389));
#558=CARTESIAN_POINT('Origin',(95.2556813608008,33.,91.0821677096389));
#559=CARTESIAN_POINT('Origin',(14.6556813608008,33.,59.0821677096389));
#560=CARTESIAN_POINT('',(17.1556813608008,43.,59.0821677096389));
#561=CARTESIAN_POINT('Origin',(14.6556813608008,43.,59.0821677096389));
#562=CARTESIAN_POINT('',(17.1556813608008,33.,59.0821677096389));
#563=CARTESIAN_POINT('',(17.1556813608008,33.,59.0821677096389));
#564=CARTESIAN_POINT('Origin',(14.6556813608008,33.,59.0821677096389));
#565=CARTESIAN_POINT('Origin',(65.9443186391992,33.,59.0821677096389));
#566=CARTESIAN_POINT('',(68.4443186391992,43.,59.0821677096389));
#567=CARTESIAN_POINT('Origin',(65.9443186391992,43.,59.0821677096389));
#568=CARTESIAN_POINT('',(68.4443186391992,33.,59.0821677096389));
#569=CARTESIAN_POINT('',(68.4443186391992,33.,59.0821677096389));
#570=CARTESIAN_POINT('Origin',(65.9443186391992,33.,59.0821677096389));
#571=CARTESIAN_POINT('Origin',(-14.6556813608008,33.,91.0821677096389));
#572=CARTESIAN_POINT('',(-12.1556813608008,43.,91.0821677096389));
#573=CARTESIAN_POINT('Origin',(-14.6556813608008,43.,91.0821677096389));
#574=CARTESIAN_POINT('',(-12.1556813608008,33.,91.0821677096389));
#575=CARTESIAN_POINT('',(-12.1556813608008,33.,91.0821677096389));
#576=CARTESIAN_POINT('Origin',(-14.6556813608008,33.,91.0821677096389));
#577=CARTESIAN_POINT('Origin',(65.9443186391992,33.,91.0821677096389));
#578=CARTESIAN_POINT('',(68.4443186391992,43.,91.0821677096389));
#579=CARTESIAN_POINT('Origin',(65.9443186391992,43.,91.0821677096389));
#580=CARTESIAN_POINT('',(68.4443186391992,33.,91.0821677096389));
#581=CARTESIAN_POINT('',(68.4443186391992,33.,91.0821677096389));
#582=CARTESIAN_POINT('Origin',(65.9443186391992,33.,91.0821677096389));
#583=CARTESIAN_POINT('Origin',(-14.6556813608008,33.,59.0821677096389));
#584=CARTESIAN_POINT('',(-12.1556813608008,43.,59.0821677096389));
#585=CARTESIAN_POINT('Origin',(-14.6556813608008,43.,59.0821677096389));
#586=CARTESIAN_POINT('',(-12.1556813608008,33.,59.0821677096389));
#587=CARTESIAN_POINT('',(-12.1556813608008,33.,59.0821677096389));
#588=CARTESIAN_POINT('Origin',(-14.6556813608008,33.,59.0821677096389));
#589=CARTESIAN_POINT('Origin',(95.2556813608008,33.,59.0821677096389));
#590=CARTESIAN_POINT('',(97.7556813608008,43.,59.0821677096389));
#591=CARTESIAN_POINT('Origin',(95.2556813608008,43.,59.0821677096389));
#592=CARTESIAN_POINT('',(97.7556813608008,33.,59.0821677096389));
#593=CARTESIAN_POINT('',(97.7556813608008,33.,59.0821677096389));
#594=CARTESIAN_POINT('Origin',(95.2556813608008,33.,59.0821677096389));
#595=CARTESIAN_POINT('Origin',(14.6556813608008,33.,91.0821677096389));
#596=CARTESIAN_POINT('',(17.1556813608008,43.,91.0821677096389));
#597=CARTESIAN_POINT('Origin',(14.6556813608008,43.,91.0821677096389));
#598=CARTESIAN_POINT('',(17.1556813608008,33.,91.0821677096389));
#599=CARTESIAN_POINT('',(17.1556813608008,33.,91.0821677096389));
#600=CARTESIAN_POINT('Origin',(14.6556813608008,33.,91.0821677096389));
#601=CARTESIAN_POINT('Origin',(103.1,33.,45.0821677096381));
#602=CARTESIAN_POINT('',(-22.5,33.,45.0821677096382));
#603=CARTESIAN_POINT('',(103.1,33.,45.0821677096381));
#604=CARTESIAN_POINT('',(-528.5,33.,45.0821677096382));
#605=CARTESIAN_POINT('',(-22.5,43.,45.0821677096382));
#606=CARTESIAN_POINT('',(-22.5,33.,45.0821677096382));
#607=CARTESIAN_POINT('',(103.1,43.,45.0821677096381));
#608=CARTESIAN_POINT('',(-528.5,43.,45.0821677096382));
#609=CARTESIAN_POINT('',(103.1,33.,45.0821677096381));
#610=CARTESIAN_POINT('Origin',(103.1,33.,107.082167709637));
#611=CARTESIAN_POINT('',(103.1,33.,107.082167709637));
#612=CARTESIAN_POINT('',(103.1,33.,107.082167709637));
#613=CARTESIAN_POINT('',(103.1,43.,107.082167709637));
#614=CARTESIAN_POINT('',(103.1,43.,107.082167709637));
#615=CARTESIAN_POINT('',(103.1,33.,107.082167709637));
#616=CARTESIAN_POINT('Origin',(-22.5,33.,107.082167709637));
#617=CARTESIAN_POINT('',(-22.5,33.,107.082167709637));
#618=CARTESIAN_POINT('',(-22.5,33.,107.082167709637));
#619=CARTESIAN_POINT('',(-22.5,43.,107.082167709637));
#620=CARTESIAN_POINT('',(-22.5,43.,107.082167709637));
#621=CARTESIAN_POINT('',(-22.5,33.,107.082167709637));
#622=CARTESIAN_POINT('Origin',(-22.5,33.,45.0821677096382));
#623=CARTESIAN_POINT('',(-22.5,33.,45.0821677096382));
#624=CARTESIAN_POINT('',(-22.5,43.,45.0821677096382));
#625=CARTESIAN_POINT('Origin',(40.3,43.,76.0821677096378));
#626=CARTESIAN_POINT('Origin',(40.3,33.,76.0821677096378));
#627=UNCERTAINTY_MEASURE_WITH_UNIT(LENGTH_MEASURE(0.01),#631,
'DISTANCE_ACCURACY_VALUE',
'Maximum model space distance between geometric entities at asserted c
onnectivities');
#628=UNCERTAINTY_MEASURE_WITH_UNIT(LENGTH_MEASURE(0.01),#631,
'DISTANCE_ACCURACY_VALUE',
'Maximum model space distance between geometric entities at asserted c
onnectivities');
#629=(
GEOMETRIC_REPRESENTATION_CONTEXT(3)
GLOBAL_UNCERTAINTY_ASSIGNED_CONTEXT((#627))
GLOBAL_UNIT_ASSIGNED_CONTEXT((#631,#633,#634))
REPRESENTATION_CONTEXT('','3D')
);
#630=(
GEOMETRIC_REPRESENTATION_CONTEXT(3)
GLOBAL_UNCERTAINTY_ASSIGNED_CONTEXT((#628))
GLOBAL_UNIT_ASSIGNED_CONTEXT((#631,#633,#634))
REPRESENTATION_CONTEXT('','3D')
);
#631=(
LENGTH_UNIT()
NAMED_UNIT(*)
SI_UNIT(.MILLI.,.METRE.)
);
#632=(
LENGTH_UNIT()
NAMED_UNIT(*)
SI_UNIT($,.METRE.)
);
#633=(
NAMED_UNIT(*)
PLANE_ANGLE_UNIT()
SI_UNIT($,.RADIAN.)
);
#634=(
NAMED_UNIT(*)
SI_UNIT($,.STERADIAN.)
SOLID_ANGLE_UNIT()
);
#635=SHAPE_DEFINITION_REPRESENTATION(#636,#637);
#636=PRODUCT_DEFINITION_SHAPE('',$,#639);
#637=SHAPE_REPRESENTATION('',(#379),#629);
#638=PRODUCT_DEFINITION_CONTEXT('part definition',#643,'design');
#639=PRODUCT_DEFINITION('Table CNC3_Plaque 1','Table CNC3_Plaque 1 v2',
#640,#638);
#640=PRODUCT_DEFINITION_FORMATION('',$,#645);
#641=PRODUCT_RELATED_PRODUCT_CATEGORY('Table CNC3_Plaque 1 v2',
'Table CNC3_Plaque 1 v2',(#645));
#642=APPLICATION_PROTOCOL_DEFINITION('international standard',
'automotive_design',2009,#643);
#643=APPLICATION_CONTEXT(
'Core Data for Automotive Mechanical Design Process');
#644=PRODUCT_CONTEXT('part definition',#643,'mechanical');
#645=PRODUCT('Table CNC3_Plaque 1','Table CNC3_Plaque 1 v2',$,(#644));
#646=PRESENTATION_STYLE_ASSIGNMENT((#647));
#647=SURFACE_STYLE_USAGE(.BOTH.,#648);
#648=SURFACE_SIDE_STYLE('',(#649));
#649=SURFACE_STYLE_FILL_AREA(#650);
#650=FILL_AREA_STYLE('Aluminum - Satin',(#651));
#651=FILL_AREA_STYLE_COLOUR('Aluminum - Satin',#652);
#652=COLOUR_RGB('Aluminum - Satin',0.96078431372549,0.96078431372549,0.964705882352941);
ENDSEC;
END-ISO-10303-21;
