ISO-10303-21;
HEADER;
FILE_DESCRIPTION(('CATIA V5 STEP Exchange'),'2;1');

FILE_NAME('D:\\quentin\\bricolage\\projet char-latant\\Mk0.1\\CG4 chaines\\DTA\\usinage\\plans\\100C6\\axe.stp','2019-02-28T18:18:40+00:00',('none'),('none'),'CATIA Version 5 Release 20 GA (IN-10)','CATIA V5 STEP AP203','none');

FILE_SCHEMA(('CONFIG_CONTROL_DESIGN'));

ENDSEC;
/* file written by CATIA V5R20 */
DATA;
#5=PRODUCT('axe','','',(#2)) ;
#1=APPLICATION_CONTEXT('configuration controlled 3D design of mechanical parts and assemblies') ;
#14=PRODUCT_DEFINITION('',' ',#6,#3) ;
#16=SECURITY_CLASSIFICATION(' ',' ',#15) ;
#15=SECURITY_CLASSIFICATION_LEVEL('unclassified') ;
#47=CARTESIAN_POINT(' ',(0.,0.,0.)) ;
#52=CARTESIAN_POINT('Axis2P3D Location',(-3.,2.64575131106,0.)) ;
#57=CARTESIAN_POINT('Line Origine',(-3.,2.64575131106,55.)) ;
#61=CARTESIAN_POINT('Vertex',(-3.,2.64575131106,0.)) ;
#63=CARTESIAN_POINT('Vertex',(-3.,2.64575131106,110.)) ;
#66=CARTESIAN_POINT('Line Origine',(-3.,0.,0.)) ;
#70=CARTESIAN_POINT('Vertex',(-3.,-2.64575131106,0.)) ;
#73=CARTESIAN_POINT('Line Origine',(-3.,-2.64575131106,55.)) ;
#77=CARTESIAN_POINT('Vertex',(-3.,-2.64575131106,110.)) ;
#80=CARTESIAN_POINT('Line Origine',(-3.,0.,110.)) ;
#92=CARTESIAN_POINT('Axis2P3D Location',(0.,0.,55.)) ;
#97=CARTESIAN_POINT('Axis2P3D Location',(0.,0.,0.)) ;
#102=CARTESIAN_POINT('Axis2P3D Location',(0.,0.,110.)) ;
#114=CARTESIAN_POINT('Axis2P3D Location',(0.,0.,0.)) ;
#124=CARTESIAN_POINT('Axis2P3D Location',(0.,0.,110.)) ;
#53=DIRECTION('Axis2P3D Direction',(-1.,0.,0.)) ;
#54=DIRECTION('Axis2P3D XDirection',(0.,-1.,0.)) ;
#58=DIRECTION('Vector Direction',(0.,0.,1.)) ;
#67=DIRECTION('Vector Direction',(0.,-1.,0.)) ;
#74=DIRECTION('Vector Direction',(0.,0.,1.)) ;
#81=DIRECTION('Vector Direction',(0.,-1.,0.)) ;
#93=DIRECTION('Axis2P3D Direction',(0.,0.,1.)) ;
#94=DIRECTION('Axis2P3D XDirection',(-0.75,-0.661437827766,-0.)) ;
#98=DIRECTION('Axis2P3D Direction',(0.,0.,1.)) ;
#103=DIRECTION('Axis2P3D Direction',(0.,0.,1.)) ;
#115=DIRECTION('Axis2P3D Direction',(0.,0.,1.)) ;
#116=DIRECTION('Axis2P3D XDirection',(1.,0.,0.)) ;
#125=DIRECTION('Axis2P3D Direction',(0.,0.,1.)) ;
#126=DIRECTION('Axis2P3D XDirection',(1.,0.,0.)) ;
#48=AXIS2_PLACEMENT_3D(' ',#47,$,$) ;
#55=AXIS2_PLACEMENT_3D('Plane Axis2P3D',#52,#53,#54) ;
#95=AXIS2_PLACEMENT_3D('Cylinder Axis2P3D',#92,#93,#94) ;
#99=AXIS2_PLACEMENT_3D('Circle Axis2P3D',#97,#98,$) ;
#104=AXIS2_PLACEMENT_3D('Circle Axis2P3D',#102,#103,$) ;
#117=AXIS2_PLACEMENT_3D('Plane Axis2P3D',#114,#115,#116) ;
#127=AXIS2_PLACEMENT_3D('Plane Axis2P3D',#124,#125,#126) ;
#40=PRODUCT_DEFINITION_SHAPE(' ',' ',#14) ;
#31=APPROVAL_PERSON_ORGANIZATION(#25,#21,#19) ;
#25=PERSON_AND_ORGANIZATION(#22,#23) ;
#22=PERSON(' ',' ',' ',$,$,$) ;
#23=ORGANIZATION(' ',' ',' ') ;
#21=APPROVAL(#20,' ') ;
#20=APPROVAL_STATUS('not_yet_approved') ;
#19=APPROVAL_ROLE('APPROVER') ;
#13=DATE_AND_TIME(#11,#12) ;
#12=LOCAL_TIME(19,18,40.,#10) ;
#10=COORDINATED_UNIVERSAL_TIME_OFFSET(0,0,.AHEAD.) ;
#86=ORIENTED_EDGE('',*,*,#65,.F.) ;
#87=ORIENTED_EDGE('',*,*,#72,.T.) ;
#88=ORIENTED_EDGE('',*,*,#79,.T.) ;
#89=ORIENTED_EDGE('',*,*,#84,.F.) ;
#108=ORIENTED_EDGE('',*,*,#79,.F.) ;
#109=ORIENTED_EDGE('',*,*,#101,.T.) ;
#110=ORIENTED_EDGE('',*,*,#65,.T.) ;
#111=ORIENTED_EDGE('',*,*,#106,.F.) ;
#120=ORIENTED_EDGE('',*,*,#101,.F.) ;
#121=ORIENTED_EDGE('',*,*,#72,.F.) ;
#130=ORIENTED_EDGE('',*,*,#84,.T.) ;
#131=ORIENTED_EDGE('',*,*,#106,.T.) ;
#51=CLOSED_SHELL('Closed Shell',(#91,#113,#123,#133)) ;
#59=VECTOR('Line Direction',#58,1.) ;
#68=VECTOR('Line Direction',#67,1.) ;
#75=VECTOR('Line Direction',#74,1.) ;
#82=VECTOR('Line Direction',#81,1.) ;
#135=ADVANCED_BREP_SHAPE_REPRESENTATION('NONE',(#134),#46) ;
#49=SHAPE_REPRESENTATION(' ',(#48),#46) ;
#91=ADVANCED_FACE('Corps principal',(#90),#56,.T.) ;
#113=ADVANCED_FACE('Corps principal',(#112),#96,.T.) ;
#123=ADVANCED_FACE('Corps principal',(#122),#118,.F.) ;
#133=ADVANCED_FACE('Corps principal',(#132),#128,.T.) ;
#4=APPLICATION_PROTOCOL_DEFINITION('international standard','config_control_design',1994,#1) ;
#32=APPROVAL_DATE_TIME(#13,#21) ;
#134=MANIFOLD_SOLID_BREP('Corps principal',#51) ;
#11=CALENDAR_DATE(2019,28,2) ;
#30=CC_DESIGN_APPROVAL(#21,(#16,#6,#14)) ;
#18=CC_DESIGN_DATE_AND_TIME_ASSIGNMENT(#13,#17,(#16)) ;
#29=CC_DESIGN_DATE_AND_TIME_ASSIGNMENT(#13,#28,(#14)) ;
#17=DATE_TIME_ROLE('classification_date') ;
#28=DATE_TIME_ROLE('creation_date') ;
#27=CC_DESIGN_PERSON_AND_ORGANIZATION_ASSIGNMENT(#25,#26,(#16)) ;
#33=CC_DESIGN_PERSON_AND_ORGANIZATION_ASSIGNMENT(#25,#34,(#6)) ;
#35=CC_DESIGN_PERSON_AND_ORGANIZATION_ASSIGNMENT(#25,#36,(#6,#14)) ;
#37=CC_DESIGN_PERSON_AND_ORGANIZATION_ASSIGNMENT(#25,#38,(#5)) ;
#26=PERSON_AND_ORGANIZATION_ROLE('classification_officer') ;
#34=PERSON_AND_ORGANIZATION_ROLE('design_supplier') ;
#36=PERSON_AND_ORGANIZATION_ROLE('creator') ;
#38=PERSON_AND_ORGANIZATION_ROLE('design_owner') ;
#39=CC_DESIGN_SECURITY_CLASSIFICATION(#16,(#6)) ;
#100=CIRCLE('generated circle',#99,4.) ;
#105=CIRCLE('generated circle',#104,4.) ;
#136=SHAPE_REPRESENTATION_RELATIONSHIP(' ',' ',#49,#135) ;
#96=CYLINDRICAL_SURFACE('generated cylinder',#95,4.) ;
#3=DESIGN_CONTEXT(' ',#1,'design') ;
#65=EDGE_CURVE('',#62,#64,#60,.T.) ;
#72=EDGE_CURVE('',#62,#71,#69,.T.) ;
#79=EDGE_CURVE('',#71,#78,#76,.T.) ;
#84=EDGE_CURVE('',#64,#78,#83,.T.) ;
#101=EDGE_CURVE('',#71,#62,#100,.T.) ;
#106=EDGE_CURVE('',#78,#64,#105,.T.) ;
#85=EDGE_LOOP('',(#86,#87,#88,#89)) ;
#107=EDGE_LOOP('',(#108,#109,#110,#111)) ;
#119=EDGE_LOOP('',(#120,#121)) ;
#129=EDGE_LOOP('',(#130,#131)) ;
#90=FACE_OUTER_BOUND('',#85,.T.) ;
#112=FACE_OUTER_BOUND('',#107,.T.) ;
#122=FACE_OUTER_BOUND('',#119,.T.) ;
#132=FACE_OUTER_BOUND('',#129,.T.) ;
#45=UNCERTAINTY_MEASURE_WITH_UNIT(LENGTH_MEASURE(0.005),#41,'distance_accuracy_value','CONFUSED CURVE UNCERTAINTY') ;
#60=LINE('Line',#57,#59) ;
#69=LINE('Line',#66,#68) ;
#76=LINE('Line',#73,#75) ;
#83=LINE('Line',#80,#82) ;
#2=MECHANICAL_CONTEXT(' ',#1,'mechanical') ;
#24=PERSONAL_ADDRESS(' ',' ',' ',' ',' ',' ',' ',' ',' ',' ',' ',' ',(#22),' ') ;
#56=PLANE('Plane',#55) ;
#118=PLANE('Plane',#117) ;
#128=PLANE('Plane',#127) ;
#43=PLANE_ANGLE_MEASURE_WITH_UNIT(PLANE_ANGLE_MEASURE(0.0174532925199),#42) ;
#7=PRODUCT_CATEGORY('part',$) ;
#9=PRODUCT_CATEGORY_RELATIONSHIP(' ',' ',#7,#8) ;
#6=PRODUCT_DEFINITION_FORMATION_WITH_SPECIFIED_SOURCE('',' ',#5,.NOT_KNOWN.) ;
#8=PRODUCT_RELATED_PRODUCT_CATEGORY('detail',$,(#5)) ;
#50=SHAPE_DEFINITION_REPRESENTATION(#40,#49) ;
#62=VERTEX_POINT('',#61) ;
#64=VERTEX_POINT('',#63) ;
#71=VERTEX_POINT('',#70) ;
#78=VERTEX_POINT('',#77) ;
#41=(LENGTH_UNIT()NAMED_UNIT(*)SI_UNIT(.MILLI.,.METRE.)) ;
#42=(NAMED_UNIT(*)PLANE_ANGLE_UNIT()SI_UNIT($,.RADIAN.)) ;
#44=(NAMED_UNIT(*)SI_UNIT($,.STERADIAN.)SOLID_ANGLE_UNIT()) ;
#46=(GEOMETRIC_REPRESENTATION_CONTEXT(3)GLOBAL_UNCERTAINTY_ASSIGNED_CONTEXT((#45))GLOBAL_UNIT_ASSIGNED_CONTEXT((#41,#42,#44))REPRESENTATION_CONTEXT(' ',' ')) ;
ENDSEC;
END-ISO-10303-21;
