ISO-10303-21;
HEADER;
/* Generated by software containing ST-Developer
 * from STEP Tools, Inc. (www.steptools.com) 
 */

FILE_DESCRIPTION(
/* description */ (''),
/* implementation_level */ '2;1');

FILE_NAME(
/* name */ 
'C:\\Users\\Valerick\\Documents\\Prusa i3\\Accessoire lunette Field Fe
inwerkbau 601.stp',
/* time_stamp */ '2019-02-24T20:06:48+01:00',
/* author */ ('Valerick'),
/* organization */ (''),
/* preprocessor_version */ 'ST-DEVELOPER v16.13',
/* originating_system */ 'Autodesk Inventor 2018',
/* authorisation */ '');

FILE_SCHEMA (('AUTOMOTIVE_DESIGN { 1 0 10303 214 3 1 1 }'));
ENDSEC;

DATA;
#10=MECHANICAL_DESIGN_GEOMETRIC_PRESENTATION_REPRESENTATION('',(#13),#502);
#11=SHAPE_REPRESENTATION_RELATIONSHIP('SRR','None',#509,#12);
#12=ADVANCED_BREP_SHAPE_REPRESENTATION('',(#14),#501);
#13=STYLED_ITEM('',(#518),#14);
#14=MANIFOLD_SOLID_BREP('Solide1',#246);
#15=PLANE('',#282);
#16=PLANE('',#283);
#17=PLANE('',#287);
#18=PLANE('',#288);
#19=PLANE('',#289);
#20=PLANE('',#290);
#21=LINE('',#442,#39);
#22=LINE('',#445,#40);
#23=LINE('',#451,#41);
#24=LINE('',#457,#42);
#25=LINE('',#463,#43);
#26=LINE('',#469,#44);
#27=LINE('',#472,#45);
#28=LINE('',#474,#46);
#29=LINE('',#475,#47);
#30=LINE('',#478,#48);
#31=LINE('',#480,#49);
#32=LINE('',#481,#50);
#33=LINE('',#487,#51);
#34=LINE('',#490,#52);
#35=LINE('',#492,#53);
#36=LINE('',#493,#54);
#37=LINE('',#495,#55);
#38=LINE('',#496,#56);
#39=VECTOR('',#299,10.);
#40=VECTOR('',#302,10.);
#41=VECTOR('',#309,10.);
#42=VECTOR('',#316,10.);
#43=VECTOR('',#323,10.);
#44=VECTOR('',#330,10.);
#45=VECTOR('',#333,10.);
#46=VECTOR('',#334,10.);
#47=VECTOR('',#335,10.);
#48=VECTOR('',#338,10.);
#49=VECTOR('',#339,10.);
#50=VECTOR('',#340,10.);
#51=VECTOR('',#347,10.);
#52=VECTOR('',#350,10.);
#53=VECTOR('',#351,10.);
#54=VECTOR('',#352,10.);
#55=VECTOR('',#355,10.);
#56=VECTOR('',#356,10.);
#57=CIRCLE('',#268,13.);
#58=CIRCLE('',#269,13.);
#59=CIRCLE('',#271,0.387350392573218);
#60=CIRCLE('',#272,0.387350392573218);
#61=CIRCLE('',#274,10.);
#62=CIRCLE('',#275,10.);
#63=CIRCLE('',#277,0.387350392573219);
#64=CIRCLE('',#278,0.387350392573219);
#65=CIRCLE('',#280,13.);
#66=CIRCLE('',#281,13.);
#67=CIRCLE('',#285,13.);
#68=CIRCLE('',#286,13.);
#69=FACE_BOUND('',#86,.T.);
#70=FACE_BOUND('',#90,.T.);
#71=FACE_BOUND('',#96,.T.);
#72=FACE_OUTER_BOUND('',#85,.T.);
#73=FACE_OUTER_BOUND('',#87,.T.);
#74=FACE_OUTER_BOUND('',#88,.T.);
#75=FACE_OUTER_BOUND('',#89,.T.);
#76=FACE_OUTER_BOUND('',#91,.T.);
#77=FACE_OUTER_BOUND('',#92,.T.);
#78=FACE_OUTER_BOUND('',#93,.T.);
#79=FACE_OUTER_BOUND('',#94,.T.);
#80=FACE_OUTER_BOUND('',#95,.T.);
#81=FACE_OUTER_BOUND('',#97,.T.);
#82=FACE_OUTER_BOUND('',#98,.T.);
#83=FACE_OUTER_BOUND('',#99,.T.);
#84=FACE_OUTER_BOUND('',#100,.T.);
#85=EDGE_LOOP('',(#160,#161));
#86=EDGE_LOOP('',(#162));
#87=EDGE_LOOP('',(#163,#164,#165,#166));
#88=EDGE_LOOP('',(#167,#168,#169,#170));
#89=EDGE_LOOP('',(#171,#172,#173,#174));
#90=EDGE_LOOP('',(#175));
#91=EDGE_LOOP('',(#176,#177,#178,#179));
#92=EDGE_LOOP('',(#180,#181,#182,#183));
#93=EDGE_LOOP('',(#184,#185,#186,#187));
#94=EDGE_LOOP('',(#188,#189,#190,#191));
#95=EDGE_LOOP('',(#192,#193,#194,#195));
#96=EDGE_LOOP('',(#196,#197));
#97=EDGE_LOOP('',(#198,#199,#200,#201));
#98=EDGE_LOOP('',(#202,#203,#204,#205));
#99=EDGE_LOOP('',(#206,#207,#208,#209,#210,#211,#212,#213,#214,#215));
#100=EDGE_LOOP('',(#216,#217,#218,#219,#220,#221,#222,#223,#224,#225));
#101=B_SPLINE_CURVE_WITH_KNOTS('',3,(#365,#366,#367,#368,#369,#370,#371,
#372,#373,#374,#375,#376,#377,#378,#379,#380,#381,#382),.UNSPECIFIED.,.F.,
 .F.,(4,2,2,2,2,2,2,2,4),(0.377700316086621,0.47212314017582,0.566545964265019,
0.66097329821913,0.755400632173242,0.849827966127353,0.944255300081465,
1.03867812417066,1.13310094825986),.UNSPECIFIED.);
#102=B_SPLINE_CURVE_WITH_KNOTS('',3,(#383,#384,#385,#386,#387,#388,#389,
#390,#391,#392,#393,#394,#395,#396,#397,#398,#399,#400,#401),
 .UNSPECIFIED.,.F.,.F.,(4,2,2,2,3,2,2,2,4),(1.13310094825986,1.22752377234906,
1.32194659643826,1.41637393039237,1.51080126434648,1.6052285983006,1.69965593225471,
1.79407875634391,1.8885015804331),.UNSPECIFIED.);
#103=B_SPLINE_CURVE_WITH_KNOTS('',3,(#403,#404,#405,#406,#407,#408,#409,
#410,#411,#412,#413,#414,#415,#416,#417,#418,#419,#420,#421,#422,#423,#424,
#425,#426,#427,#428,#429,#430,#431,#432,#433,#434,#435,#436),
 .UNSPECIFIED.,.T.,.F.,(4,2,2,2,2,2,2,2,2,2,2,2,2,2,2,2,4),(0.,0.0946120580087933,
0.189224116017587,0.283822945575014,0.378421775132442,0.47302060468987,
0.567619434247297,0.66223149225609,0.756843550264884,0.851455608273677,
0.94606766628247,1.0406664958399,1.13526532539733,1.22986415495475,1.32446298451218,
1.41907504252097,1.51368710052977),.UNSPECIFIED.);
#104=VERTEX_POINT('',#363);
#105=VERTEX_POINT('',#364);
#106=VERTEX_POINT('',#402);
#107=VERTEX_POINT('',#438);
#108=VERTEX_POINT('',#439);
#109=VERTEX_POINT('',#441);
#110=VERTEX_POINT('',#443);
#111=VERTEX_POINT('',#447);
#112=VERTEX_POINT('',#449);
#113=VERTEX_POINT('',#453);
#114=VERTEX_POINT('',#455);
#115=VERTEX_POINT('',#459);
#116=VERTEX_POINT('',#461);
#117=VERTEX_POINT('',#465);
#118=VERTEX_POINT('',#467);
#119=VERTEX_POINT('',#471);
#120=VERTEX_POINT('',#473);
#121=VERTEX_POINT('',#477);
#122=VERTEX_POINT('',#479);
#123=VERTEX_POINT('',#483);
#124=VERTEX_POINT('',#485);
#125=VERTEX_POINT('',#489);
#126=VERTEX_POINT('',#491);
#127=EDGE_CURVE('',#104,#105,#101,.T.);
#128=EDGE_CURVE('',#105,#104,#102,.T.);
#129=EDGE_CURVE('',#106,#106,#103,.T.);
#130=EDGE_CURVE('',#107,#108,#57,.T.);
#131=EDGE_CURVE('',#107,#109,#21,.T.);
#132=EDGE_CURVE('',#110,#109,#58,.T.);
#133=EDGE_CURVE('',#108,#110,#22,.T.);
#134=EDGE_CURVE('',#108,#111,#59,.T.);
#135=EDGE_CURVE('',#112,#110,#60,.T.);
#136=EDGE_CURVE('',#111,#112,#23,.T.);
#137=EDGE_CURVE('',#111,#113,#61,.T.);
#138=EDGE_CURVE('',#114,#112,#62,.T.);
#139=EDGE_CURVE('',#113,#114,#24,.T.);
#140=EDGE_CURVE('',#113,#115,#63,.T.);
#141=EDGE_CURVE('',#116,#114,#64,.T.);
#142=EDGE_CURVE('',#115,#116,#25,.T.);
#143=EDGE_CURVE('',#115,#117,#65,.T.);
#144=EDGE_CURVE('',#118,#116,#66,.T.);
#145=EDGE_CURVE('',#117,#118,#26,.T.);
#146=EDGE_CURVE('',#117,#119,#27,.T.);
#147=EDGE_CURVE('',#120,#118,#28,.T.);
#148=EDGE_CURVE('',#119,#120,#29,.T.);
#149=EDGE_CURVE('',#119,#121,#30,.T.);
#150=EDGE_CURVE('',#122,#120,#31,.T.);
#151=EDGE_CURVE('',#121,#122,#32,.T.);
#152=EDGE_CURVE('',#121,#123,#67,.T.);
#153=EDGE_CURVE('',#124,#122,#68,.T.);
#154=EDGE_CURVE('',#123,#124,#33,.T.);
#155=EDGE_CURVE('',#123,#125,#34,.T.);
#156=EDGE_CURVE('',#126,#124,#35,.T.);
#157=EDGE_CURVE('',#125,#126,#36,.T.);
#158=EDGE_CURVE('',#125,#107,#37,.T.);
#159=EDGE_CURVE('',#109,#126,#38,.T.);
#160=ORIENTED_EDGE('',*,*,#127,.F.);
#161=ORIENTED_EDGE('',*,*,#128,.F.);
#162=ORIENTED_EDGE('',*,*,#129,.F.);
#163=ORIENTED_EDGE('',*,*,#130,.F.);
#164=ORIENTED_EDGE('',*,*,#131,.T.);
#165=ORIENTED_EDGE('',*,*,#132,.F.);
#166=ORIENTED_EDGE('',*,*,#133,.F.);
#167=ORIENTED_EDGE('',*,*,#134,.F.);
#168=ORIENTED_EDGE('',*,*,#133,.T.);
#169=ORIENTED_EDGE('',*,*,#135,.F.);
#170=ORIENTED_EDGE('',*,*,#136,.F.);
#171=ORIENTED_EDGE('',*,*,#137,.F.);
#172=ORIENTED_EDGE('',*,*,#136,.T.);
#173=ORIENTED_EDGE('',*,*,#138,.F.);
#174=ORIENTED_EDGE('',*,*,#139,.F.);
#175=ORIENTED_EDGE('',*,*,#129,.T.);
#176=ORIENTED_EDGE('',*,*,#140,.F.);
#177=ORIENTED_EDGE('',*,*,#139,.T.);
#178=ORIENTED_EDGE('',*,*,#141,.F.);
#179=ORIENTED_EDGE('',*,*,#142,.F.);
#180=ORIENTED_EDGE('',*,*,#143,.F.);
#181=ORIENTED_EDGE('',*,*,#142,.T.);
#182=ORIENTED_EDGE('',*,*,#144,.F.);
#183=ORIENTED_EDGE('',*,*,#145,.F.);
#184=ORIENTED_EDGE('',*,*,#146,.F.);
#185=ORIENTED_EDGE('',*,*,#145,.T.);
#186=ORIENTED_EDGE('',*,*,#147,.F.);
#187=ORIENTED_EDGE('',*,*,#148,.F.);
#188=ORIENTED_EDGE('',*,*,#149,.F.);
#189=ORIENTED_EDGE('',*,*,#148,.T.);
#190=ORIENTED_EDGE('',*,*,#150,.F.);
#191=ORIENTED_EDGE('',*,*,#151,.F.);
#192=ORIENTED_EDGE('',*,*,#152,.F.);
#193=ORIENTED_EDGE('',*,*,#151,.T.);
#194=ORIENTED_EDGE('',*,*,#153,.F.);
#195=ORIENTED_EDGE('',*,*,#154,.F.);
#196=ORIENTED_EDGE('',*,*,#127,.T.);
#197=ORIENTED_EDGE('',*,*,#128,.T.);
#198=ORIENTED_EDGE('',*,*,#155,.F.);
#199=ORIENTED_EDGE('',*,*,#154,.T.);
#200=ORIENTED_EDGE('',*,*,#156,.F.);
#201=ORIENTED_EDGE('',*,*,#157,.F.);
#202=ORIENTED_EDGE('',*,*,#158,.F.);
#203=ORIENTED_EDGE('',*,*,#157,.T.);
#204=ORIENTED_EDGE('',*,*,#159,.F.);
#205=ORIENTED_EDGE('',*,*,#131,.F.);
#206=ORIENTED_EDGE('',*,*,#158,.T.);
#207=ORIENTED_EDGE('',*,*,#130,.T.);
#208=ORIENTED_EDGE('',*,*,#134,.T.);
#209=ORIENTED_EDGE('',*,*,#137,.T.);
#210=ORIENTED_EDGE('',*,*,#140,.T.);
#211=ORIENTED_EDGE('',*,*,#143,.T.);
#212=ORIENTED_EDGE('',*,*,#146,.T.);
#213=ORIENTED_EDGE('',*,*,#149,.T.);
#214=ORIENTED_EDGE('',*,*,#152,.T.);
#215=ORIENTED_EDGE('',*,*,#155,.T.);
#216=ORIENTED_EDGE('',*,*,#159,.T.);
#217=ORIENTED_EDGE('',*,*,#156,.T.);
#218=ORIENTED_EDGE('',*,*,#153,.T.);
#219=ORIENTED_EDGE('',*,*,#150,.T.);
#220=ORIENTED_EDGE('',*,*,#147,.T.);
#221=ORIENTED_EDGE('',*,*,#144,.T.);
#222=ORIENTED_EDGE('',*,*,#141,.T.);
#223=ORIENTED_EDGE('',*,*,#138,.T.);
#224=ORIENTED_EDGE('',*,*,#135,.T.);
#225=ORIENTED_EDGE('',*,*,#132,.T.);
#226=CYLINDRICAL_SURFACE('',#266,2.5);
#227=CYLINDRICAL_SURFACE('',#267,13.);
#228=CYLINDRICAL_SURFACE('',#270,0.387350392573218);
#229=CYLINDRICAL_SURFACE('',#273,10.);
#230=CYLINDRICAL_SURFACE('',#276,0.387350392573219);
#231=CYLINDRICAL_SURFACE('',#279,13.);
#232=CYLINDRICAL_SURFACE('',#284,13.);
#233=ADVANCED_FACE('',(#72,#69),#226,.F.);
#234=ADVANCED_FACE('',(#73),#227,.T.);
#235=ADVANCED_FACE('',(#74),#228,.T.);
#236=ADVANCED_FACE('',(#75,#70),#229,.F.);
#237=ADVANCED_FACE('',(#76),#230,.T.);
#238=ADVANCED_FACE('',(#77),#231,.T.);
#239=ADVANCED_FACE('',(#78),#15,.T.);
#240=ADVANCED_FACE('',(#79),#16,.T.);
#241=ADVANCED_FACE('',(#80,#71),#232,.T.);
#242=ADVANCED_FACE('',(#81),#17,.T.);
#243=ADVANCED_FACE('',(#82),#18,.T.);
#244=ADVANCED_FACE('',(#83),#19,.F.);
#245=ADVANCED_FACE('',(#84),#20,.T.);
#246=CLOSED_SHELL('',(#233,#234,#235,#236,#237,#238,#239,#240,#241,#242,
#243,#244,#245));
#247=DERIVED_UNIT_ELEMENT(#249,0.);
#248=DERIVED_UNIT_ELEMENT(#504,0.);
#249=(
MASS_UNIT()
NAMED_UNIT(*)
SI_UNIT($,.GRAM.)
);
#250=DERIVED_UNIT((#247,#248));
#251=MEASURE_REPRESENTATION_ITEM('density measure',
POSITIVE_RATIO_MEASURE(1.),#250);
#252=PROPERTY_DEFINITION_REPRESENTATION(#257,#254);
#253=PROPERTY_DEFINITION_REPRESENTATION(#258,#255);
#254=REPRESENTATION('material name',(#256),#501);
#255=REPRESENTATION('density',(#251),#501);
#256=DESCRIPTIVE_REPRESENTATION_ITEM('G\X\E9n\X\E9rique','G\X\E9n\X\E9
rique');
#257=PROPERTY_DEFINITION('material property','material name',#511);
#258=PROPERTY_DEFINITION('material property','density of part',#511);
#259=DATE_TIME_ROLE('creation_date');
#260=APPLIED_DATE_AND_TIME_ASSIGNMENT(#261,#259,(#511));
#261=DATE_AND_TIME(#262,#263);
#262=CALENDAR_DATE(2019,23,2);
#263=LOCAL_TIME(10,43,23.,#264);
#264=COORDINATED_UNIVERSAL_TIME_OFFSET(0,0,.BEHIND.);
#265=AXIS2_PLACEMENT_3D('placement',#361,#291,#292);
#266=AXIS2_PLACEMENT_3D('',#362,#293,#294);
#267=AXIS2_PLACEMENT_3D('',#437,#295,#296);
#268=AXIS2_PLACEMENT_3D('',#440,#297,#298);
#269=AXIS2_PLACEMENT_3D('',#444,#300,#301);
#270=AXIS2_PLACEMENT_3D('',#446,#303,#304);
#271=AXIS2_PLACEMENT_3D('',#448,#305,#306);
#272=AXIS2_PLACEMENT_3D('',#450,#307,#308);
#273=AXIS2_PLACEMENT_3D('',#452,#310,#311);
#274=AXIS2_PLACEMENT_3D('',#454,#312,#313);
#275=AXIS2_PLACEMENT_3D('',#456,#314,#315);
#276=AXIS2_PLACEMENT_3D('',#458,#317,#318);
#277=AXIS2_PLACEMENT_3D('',#460,#319,#320);
#278=AXIS2_PLACEMENT_3D('',#462,#321,#322);
#279=AXIS2_PLACEMENT_3D('',#464,#324,#325);
#280=AXIS2_PLACEMENT_3D('',#466,#326,#327);
#281=AXIS2_PLACEMENT_3D('',#468,#328,#329);
#282=AXIS2_PLACEMENT_3D('',#470,#331,#332);
#283=AXIS2_PLACEMENT_3D('',#476,#336,#337);
#284=AXIS2_PLACEMENT_3D('',#482,#341,#342);
#285=AXIS2_PLACEMENT_3D('',#484,#343,#344);
#286=AXIS2_PLACEMENT_3D('',#486,#345,#346);
#287=AXIS2_PLACEMENT_3D('',#488,#348,#349);
#288=AXIS2_PLACEMENT_3D('',#494,#353,#354);
#289=AXIS2_PLACEMENT_3D('',#497,#357,#358);
#290=AXIS2_PLACEMENT_3D('',#498,#359,#360);
#291=DIRECTION('axis',(0.,0.,1.));
#292=DIRECTION('refdir',(1.,0.,0.));
#293=DIRECTION('center_axis',(0.,-1.,0.));
#294=DIRECTION('ref_axis',(1.,0.,0.));
#295=DIRECTION('center_axis',(0.,0.,1.));
#296=DIRECTION('ref_axis',(-0.414411568659478,0.910089584470227,0.));
#297=DIRECTION('center_axis',(0.,0.,-1.));
#298=DIRECTION('ref_axis',(-0.414411568659478,0.910089584470227,0.));
#299=DIRECTION('',(0.,0.,1.));
#300=DIRECTION('center_axis',(0.,0.,1.));
#301=DIRECTION('ref_axis',(-0.414411568659478,0.910089584470227,0.));
#302=DIRECTION('',(0.,0.,1.));
#303=DIRECTION('center_axis',(0.,0.,1.));
#304=DIRECTION('ref_axis',(0.499999999999999,-0.866025403784439,0.));
#305=DIRECTION('center_axis',(0.,0.,-1.));
#306=DIRECTION('ref_axis',(0.499999999999999,-0.866025403784439,0.));
#307=DIRECTION('center_axis',(0.,0.,1.));
#308=DIRECTION('ref_axis',(0.499999999999999,-0.866025403784439,0.));
#309=DIRECTION('',(0.,0.,1.));
#310=DIRECTION('center_axis',(0.,0.,1.));
#311=DIRECTION('ref_axis',(0.499999999999999,-0.866025403784439,0.));
#312=DIRECTION('center_axis',(0.,0.,1.));
#313=DIRECTION('ref_axis',(0.499999999999999,-0.866025403784439,0.));
#314=DIRECTION('center_axis',(0.,0.,-1.));
#315=DIRECTION('ref_axis',(0.499999999999999,-0.866025403784439,0.));
#316=DIRECTION('',(0.,0.,1.));
#317=DIRECTION('center_axis',(0.,0.,1.));
#318=DIRECTION('ref_axis',(0.500000000000013,0.866025403784431,0.));
#319=DIRECTION('center_axis',(0.,0.,-1.));
#320=DIRECTION('ref_axis',(0.500000000000013,0.866025403784431,0.));
#321=DIRECTION('center_axis',(0.,0.,1.));
#322=DIRECTION('ref_axis',(0.500000000000013,0.866025403784431,0.));
#323=DIRECTION('',(0.,0.,1.));
#324=DIRECTION('center_axis',(0.,0.,1.));
#325=DIRECTION('ref_axis',(0.638971066378313,-0.769230769230769,0.));
#326=DIRECTION('center_axis',(0.,0.,-1.));
#327=DIRECTION('ref_axis',(0.638971066378313,-0.769230769230769,0.));
#328=DIRECTION('center_axis',(0.,0.,1.));
#329=DIRECTION('ref_axis',(0.638971066378313,-0.769230769230769,0.));
#330=DIRECTION('',(0.,0.,1.));
#331=DIRECTION('center_axis',(0.,1.,0.));
#332=DIRECTION('ref_axis',(-1.,0.,0.));
#333=DIRECTION('',(1.,0.,0.));
#334=DIRECTION('',(-1.,0.,0.));
#335=DIRECTION('',(0.,0.,1.));
#336=DIRECTION('center_axis',(-0.866025403784439,-0.5,0.));
#337=DIRECTION('ref_axis',(0.5,-0.866025403784439,0.));
#338=DIRECTION('',(-0.5,0.866025403784439,0.));
#339=DIRECTION('',(0.5,-0.866025403784439,0.));
#340=DIRECTION('',(0.,0.,1.));
#341=DIRECTION('center_axis',(0.,0.,1.));
#342=DIRECTION('ref_axis',(-0.454710601984676,-0.890639247081967,0.));
#343=DIRECTION('center_axis',(0.,0.,-1.));
#344=DIRECTION('ref_axis',(-0.454710601984676,-0.890639247081967,0.));
#345=DIRECTION('center_axis',(0.,0.,1.));
#346=DIRECTION('ref_axis',(-0.454710601984676,-0.890639247081967,0.));
#347=DIRECTION('',(0.,0.,1.));
#348=DIRECTION('center_axis',(0.866025403784439,-0.5,0.));
#349=DIRECTION('ref_axis',(0.5,0.866025403784439,0.));
#350=DIRECTION('',(-0.5,-0.866025403784439,0.));
#351=DIRECTION('',(0.5,0.866025403784439,0.));
#352=DIRECTION('',(0.,0.,1.));
#353=DIRECTION('center_axis',(0.,1.,0.));
#354=DIRECTION('ref_axis',(-1.,0.,0.));
#355=DIRECTION('',(1.,0.,0.));
#356=DIRECTION('',(-1.,0.,0.));
#357=DIRECTION('center_axis',(0.,0.,1.));
#358=DIRECTION('ref_axis',(1.,0.,0.));
#359=DIRECTION('center_axis',(0.,0.,1.));
#360=DIRECTION('ref_axis',(1.,0.,0.));
#361=CARTESIAN_POINT('',(0.,0.,0.));
#362=CARTESIAN_POINT('Origin',(-3.13035964361803E-16,15.5,7.5));
#363=CARTESIAN_POINT('',(0.,15.5,10.));
#364=CARTESIAN_POINT('',(0.,15.5,5.));
#365=CARTESIAN_POINT('Ctrl Pts',(-2.08166817117217E-16,15.5,10.));
#366=CARTESIAN_POINT('Ctrl Pts',(-0.314742746963997,15.5,10.));
#367=CARTESIAN_POINT('Ctrl Pts',(-0.649934270822329,15.4874124129215,9.93693837875498));
#368=CARTESIAN_POINT('Ctrl Pts',(-1.26565646309025,15.4419244883598,9.68155836154356));
#369=CARTESIAN_POINT('Ctrl Pts',(-1.5462510881767,15.4096514782826,9.48928281775604));
#370=CARTESIAN_POINT('Ctrl Pts',(-1.98929339789528,15.3488408143016,9.04624050803746));
#371=CARTESIAN_POINT('Ctrl Pts',(-2.18156065105989,15.3163032180518,8.76565038793451));
#372=CARTESIAN_POINT('Ctrl Pts',(-2.43693465283357,15.2702069216276,8.14994380915273));
#373=CARTESIAN_POINT('Ctrl Pts',(-2.5,15.2573508221731,7.81475777984704));
#374=CARTESIAN_POINT('Ctrl Pts',(-2.5,15.2573508221731,7.18524222015296));
#375=CARTESIAN_POINT('Ctrl Pts',(-2.43693465283356,15.2702069216276,6.85005619084727));
#376=CARTESIAN_POINT('Ctrl Pts',(-2.18156065105989,15.3163032180518,6.23434961206549));
#377=CARTESIAN_POINT('Ctrl Pts',(-1.98929339789528,15.3488408143016,5.95375949196254));
#378=CARTESIAN_POINT('Ctrl Pts',(-1.5462510881767,15.4096514782826,5.51071718224396));
#379=CARTESIAN_POINT('Ctrl Pts',(-1.26565646309025,15.4419244883598,5.31844163845644));
#380=CARTESIAN_POINT('Ctrl Pts',(-0.649934270822329,15.4874124129215,5.06306162124502));
#381=CARTESIAN_POINT('Ctrl Pts',(-0.314742746963997,15.5,5.));
#382=CARTESIAN_POINT('Ctrl Pts',(-7.63278329429795E-16,15.5,5.));
#383=CARTESIAN_POINT('Ctrl Pts',(-8.32667268468867E-16,15.5,5.));
#384=CARTESIAN_POINT('Ctrl Pts',(0.314742746963995,15.5,5.));
#385=CARTESIAN_POINT('Ctrl Pts',(0.649934270822328,15.4874124129215,5.06306162124502));
#386=CARTESIAN_POINT('Ctrl Pts',(1.26565646309025,15.4419244883598,5.31844163845644));
#387=CARTESIAN_POINT('Ctrl Pts',(1.5462510881767,15.4096514782826,5.51071718224396));
#388=CARTESIAN_POINT('Ctrl Pts',(1.98929339789528,15.3488408143016,5.95375949196254));
#389=CARTESIAN_POINT('Ctrl Pts',(2.18156065105989,15.3163032180518,6.23434961206549));
#390=CARTESIAN_POINT('Ctrl Pts',(2.43693465283356,15.2702069216276,6.85005619084727));
#391=CARTESIAN_POINT('Ctrl Pts',(2.5,15.2573508221731,7.18524222015296));
#392=CARTESIAN_POINT('Ctrl Pts',(2.5,15.2573508221731,7.5));
#393=CARTESIAN_POINT('Ctrl Pts',(2.5,15.2573508221731,7.81475777984704));
#394=CARTESIAN_POINT('Ctrl Pts',(2.43693465283356,15.2702069216276,8.14994380915273));
#395=CARTESIAN_POINT('Ctrl Pts',(2.18156065105989,15.3163032180518,8.76565038793451));
#396=CARTESIAN_POINT('Ctrl Pts',(1.98929339789528,15.3488408143016,9.04624050803746));
#397=CARTESIAN_POINT('Ctrl Pts',(1.5462510881767,15.4096514782826,9.48928281775604));
#398=CARTESIAN_POINT('Ctrl Pts',(1.26565646309025,15.4419244883598,9.68155836154356));
#399=CARTESIAN_POINT('Ctrl Pts',(0.649934270822329,15.4874124129215,9.93693837875498));
#400=CARTESIAN_POINT('Ctrl Pts',(0.314742746963996,15.5,10.));
#401=CARTESIAN_POINT('Ctrl Pts',(-6.93889390390723E-17,15.5,10.));
#402=CARTESIAN_POINT('',(2.5,9.68245836551854,7.5));
#403=CARTESIAN_POINT('Ctrl Pts',(2.5,9.68245836551854,7.5));
#404=CARTESIAN_POINT('Ctrl Pts',(2.5,9.68245836551854,7.18462647330402));
#405=CARTESIAN_POINT('Ctrl Pts',(2.43669763522488,9.69947158664211,6.84919572997375));
#406=CARTESIAN_POINT('Ctrl Pts',(2.18115996279034,9.76011194447325,6.23367328742392));
#407=CARTESIAN_POINT('Ctrl Pts',(1.98899276956455,9.80277651290853,5.95345886363181));
#408=CARTESIAN_POINT('Ctrl Pts',(1.54657206767882,9.88223761669361,5.51103816174608));
#409=CARTESIAN_POINT('Ctrl Pts',(1.26634476150511,9.92431259450842,5.31884685173182));
#410=CARTESIAN_POINT('Ctrl Pts',(0.650776639541239,9.9835915024489,5.06329157242487));
#411=CARTESIAN_POINT('Ctrl Pts',(0.315329431858092,10.,5.));
#412=CARTESIAN_POINT('Ctrl Pts',(-0.315329431858092,10.,5.));
#413=CARTESIAN_POINT('Ctrl Pts',(-0.650776639541239,9.9835915024489,5.06329157242487));
#414=CARTESIAN_POINT('Ctrl Pts',(-1.26634476150511,9.92431259450842,5.31884685173182));
#415=CARTESIAN_POINT('Ctrl Pts',(-1.54657206767882,9.88223761669361,5.51103816174608));
#416=CARTESIAN_POINT('Ctrl Pts',(-1.98899276956455,9.80277651290853,5.95345886363181));
#417=CARTESIAN_POINT('Ctrl Pts',(-2.18115996279034,9.76011194447325,6.23367328742392));
#418=CARTESIAN_POINT('Ctrl Pts',(-2.43669763522489,9.69947158664211,6.84919572997375));
#419=CARTESIAN_POINT('Ctrl Pts',(-2.5,9.68245836551854,7.18462647330402));
#420=CARTESIAN_POINT('Ctrl Pts',(-2.5,9.68245836551854,7.81537352669598));
#421=CARTESIAN_POINT('Ctrl Pts',(-2.43669763522489,9.69947158664211,8.15080427002625));
#422=CARTESIAN_POINT('Ctrl Pts',(-2.18115996279034,9.76011194447325,8.76632671257608));
#423=CARTESIAN_POINT('Ctrl Pts',(-1.98899276956455,9.80277651290853,9.04654113636819));
#424=CARTESIAN_POINT('Ctrl Pts',(-1.54657206767882,9.88223761669361,9.48896183825391));
#425=CARTESIAN_POINT('Ctrl Pts',(-1.26634476150511,9.92431259450842,9.68115314826818));
#426=CARTESIAN_POINT('Ctrl Pts',(-0.65077663954124,9.9835915024489,9.93670842757514));
#427=CARTESIAN_POINT('Ctrl Pts',(-0.315329431858093,10.,10.));
#428=CARTESIAN_POINT('Ctrl Pts',(0.315329431858091,10.,10.));
#429=CARTESIAN_POINT('Ctrl Pts',(0.650776639541239,9.9835915024489,9.93670842757514));
#430=CARTESIAN_POINT('Ctrl Pts',(1.26634476150511,9.92431259450842,9.68115314826818));
#431=CARTESIAN_POINT('Ctrl Pts',(1.54657206767882,9.88223761669361,9.48896183825392));
#432=CARTESIAN_POINT('Ctrl Pts',(1.98899276956455,9.80277651290853,9.04654113636819));
#433=CARTESIAN_POINT('Ctrl Pts',(2.18115996279034,9.76011194447325,8.76632671257608));
#434=CARTESIAN_POINT('Ctrl Pts',(2.43669763522488,9.69947158664211,8.15080427002625));
#435=CARTESIAN_POINT('Ctrl Pts',(2.5,9.68245836551854,7.81537352669598));
#436=CARTESIAN_POINT('Ctrl Pts',(2.5,9.68245836551854,7.5));
#437=CARTESIAN_POINT('Origin',(0.,2.5,0.));
#438=CARTESIAN_POINT('',(8.30662386291807,12.5,0.));
#439=CARTESIAN_POINT('',(5.38735039257322,-9.33116459811295,0.));
#440=CARTESIAN_POINT('Origin',(0.,2.5,0.));
#441=CARTESIAN_POINT('',(8.30662386291807,12.5,15.));
#442=CARTESIAN_POINT('',(8.30662386291807,12.5,0.));
#443=CARTESIAN_POINT('',(5.38735039257322,-9.33116459811295,15.));
#444=CARTESIAN_POINT('Origin',(0.,2.5,15.));
#445=CARTESIAN_POINT('',(5.38735039257322,-9.33116459811295,0.));
#446=CARTESIAN_POINT('Origin',(5.1936751962866,-8.99570931797867,0.));
#447=CARTESIAN_POINT('',(4.99999999999999,-8.66025403784439,0.));
#448=CARTESIAN_POINT('Origin',(5.1936751962866,-8.99570931797867,0.));
#449=CARTESIAN_POINT('',(4.99999999999999,-8.66025403784439,15.));
#450=CARTESIAN_POINT('Origin',(5.1936751962866,-8.99570931797867,15.));
#451=CARTESIAN_POINT('',(4.99999999999999,-8.66025403784439,0.));
#452=CARTESIAN_POINT('Origin',(0.,0.,0.));
#453=CARTESIAN_POINT('',(-5.,-8.66025403784439,0.));
#454=CARTESIAN_POINT('Origin',(0.,0.,0.));
#455=CARTESIAN_POINT('',(-5.,-8.66025403784439,15.));
#456=CARTESIAN_POINT('Origin',(0.,0.,15.));
#457=CARTESIAN_POINT('',(-5.,-8.66025403784439,0.));
#458=CARTESIAN_POINT('Origin',(-5.19367519628661,-8.99570931797867,0.));
#459=CARTESIAN_POINT('',(-5.38735039257322,-9.33116459811295,0.));
#460=CARTESIAN_POINT('Origin',(-5.19367519628661,-8.99570931797867,0.));
#461=CARTESIAN_POINT('',(-5.38735039257322,-9.33116459811295,15.));
#462=CARTESIAN_POINT('Origin',(-5.19367519628661,-8.99570931797867,15.));
#463=CARTESIAN_POINT('',(-5.38735039257322,-9.33116459811295,0.));
#464=CARTESIAN_POINT('Origin',(0.,2.5,0.));
#465=CARTESIAN_POINT('',(-8.30662386291807,12.5,0.));
#466=CARTESIAN_POINT('Origin',(0.,2.5,0.));
#467=CARTESIAN_POINT('',(-8.30662386291808,12.5,15.));
#468=CARTESIAN_POINT('Origin',(0.,2.5,15.));
#469=CARTESIAN_POINT('',(-8.30662386291807,12.5,0.));
#470=CARTESIAN_POINT('Origin',(-5.,12.5,0.));
#471=CARTESIAN_POINT('',(-5.,12.5,0.));
#472=CARTESIAN_POINT('',(-8.30662386291807,12.5,0.));
#473=CARTESIAN_POINT('',(-5.,12.5,15.));
#474=CARTESIAN_POINT('',(-8.30662386291807,12.5,15.));
#475=CARTESIAN_POINT('',(-5.,12.5,0.));
#476=CARTESIAN_POINT('Origin',(-5.91123782580079,14.0783102120656,0.));
#477=CARTESIAN_POINT('',(-5.91123782580079,14.0783102120656,0.));
#478=CARTESIAN_POINT('',(-5.,12.5,0.));
#479=CARTESIAN_POINT('',(-5.91123782580079,14.0783102120656,15.));
#480=CARTESIAN_POINT('',(-5.,12.5,15.));
#481=CARTESIAN_POINT('',(-5.91123782580079,14.0783102120656,0.));
#482=CARTESIAN_POINT('Origin',(0.,2.5,0.));
#483=CARTESIAN_POINT('',(5.91123782580079,14.0783102120656,0.));
#484=CARTESIAN_POINT('Origin',(0.,2.5,0.));
#485=CARTESIAN_POINT('',(5.91123782580079,14.0783102120656,15.));
#486=CARTESIAN_POINT('Origin',(0.,2.5,15.));
#487=CARTESIAN_POINT('',(5.91123782580079,14.0783102120656,0.));
#488=CARTESIAN_POINT('Origin',(5.,12.5,0.));
#489=CARTESIAN_POINT('',(5.,12.5,0.));
#490=CARTESIAN_POINT('',(5.91123782580079,14.0783102120656,0.));
#491=CARTESIAN_POINT('',(5.,12.5,15.));
#492=CARTESIAN_POINT('',(5.91123782580079,14.0783102120656,15.));
#493=CARTESIAN_POINT('',(5.,12.5,0.));
#494=CARTESIAN_POINT('Origin',(8.30662386291807,12.5,0.));
#495=CARTESIAN_POINT('',(5.,12.5,0.));
#496=CARTESIAN_POINT('',(5.,12.5,15.));
#497=CARTESIAN_POINT('Origin',(-2.08228165035475E-16,3.69453436762713,0.));
#498=CARTESIAN_POINT('Origin',(-2.08228165035475E-16,3.69453436762713,15.));
#499=UNCERTAINTY_MEASURE_WITH_UNIT(LENGTH_MEASURE(0.01),#503,
'DISTANCE_ACCURACY_VALUE',
'Maximum model space distance between geometric entities at asserted c
onnectivities');
#500=UNCERTAINTY_MEASURE_WITH_UNIT(LENGTH_MEASURE(0.01),#503,
'DISTANCE_ACCURACY_VALUE',
'Maximum model space distance between geometric entities at asserted c
onnectivities');
#501=(
GEOMETRIC_REPRESENTATION_CONTEXT(3)
GLOBAL_UNCERTAINTY_ASSIGNED_CONTEXT((#499))
GLOBAL_UNIT_ASSIGNED_CONTEXT((#503,#506,#505))
REPRESENTATION_CONTEXT('','3D')
);
#502=(
GEOMETRIC_REPRESENTATION_CONTEXT(3)
GLOBAL_UNCERTAINTY_ASSIGNED_CONTEXT((#500))
GLOBAL_UNIT_ASSIGNED_CONTEXT((#503,#506,#505))
REPRESENTATION_CONTEXT('','3D')
);
#503=(
LENGTH_UNIT()
NAMED_UNIT(*)
SI_UNIT(.MILLI.,.METRE.)
);
#504=(
LENGTH_UNIT()
NAMED_UNIT(*)
SI_UNIT(.CENTI.,.METRE.)
);
#505=(
NAMED_UNIT(*)
SI_UNIT($,.STERADIAN.)
SOLID_ANGLE_UNIT()
);
#506=(
NAMED_UNIT(*)
PLANE_ANGLE_UNIT()
SI_UNIT($,.RADIAN.)
);
#507=SHAPE_DEFINITION_REPRESENTATION(#508,#509);
#508=PRODUCT_DEFINITION_SHAPE('',$,#511);
#509=SHAPE_REPRESENTATION('',(#265),#501);
#510=PRODUCT_DEFINITION_CONTEXT('part definition',#515,'design');
#511=PRODUCT_DEFINITION('Accessoire lunette Field Feinwerkbau 601',
'Accessoire lunette Field Feinwerkbau 601',#512,#510);
#512=PRODUCT_DEFINITION_FORMATION('',$,#517);
#513=PRODUCT_RELATED_PRODUCT_CATEGORY(
'Accessoire lunette Field Feinwerkbau 601',
'Accessoire lunette Field Feinwerkbau 601',(#517));
#514=APPLICATION_PROTOCOL_DEFINITION('international standard',
'automotive_design',2009,#515);
#515=APPLICATION_CONTEXT(
'Core Data for Automotive Mechanical Design Process');
#516=PRODUCT_CONTEXT('part definition',#515,'mechanical');
#517=PRODUCT('Accessoire lunette Field Feinwerkbau 601',
'Accessoire lunette Field Feinwerkbau 601',$,(#516));
#518=PRESENTATION_STYLE_ASSIGNMENT((#519));
#519=SURFACE_STYLE_USAGE(.BOTH.,#520);
#520=SURFACE_SIDE_STYLE('',(#521));
#521=SURFACE_STYLE_FILL_AREA(#522);
#522=FILL_AREA_STYLE('',(#523));
#523=FILL_AREA_STYLE_COLOUR('',#524);
#524=COLOUR_RGB('',0.749019607843137,0.749019607843137,0.749019607843137);
ENDSEC;
END-ISO-10303-21;
