ISO-10303-21;
HEADER;
/* Generated by software containing ST-Developer
 * from STEP Tools, Inc. (www.steptools.com) 
 */

FILE_DESCRIPTION(
/* description */ (''),
/* implementation_level */ '2;1');

FILE_NAME(
/* name */ 'C:\\Users\\Djiane\\Downloads\\David\\Pi\X\E8ce200 ferme.st
p',
/* time_stamp */ '2019-02-15T22:18:37+01:00',
/* author */ ('Djiane'),
/* organization */ (''),
/* preprocessor_version */ 'ST-DEVELOPER v17',
/* originating_system */ 'Autodesk Inventor 2019',
/* authorisation */ '');

FILE_SCHEMA (('AUTOMOTIVE_DESIGN { 1 0 10303 214 3 1 1 }'));
ENDSEC;

DATA;
#10=MECHANICAL_DESIGN_GEOMETRIC_PRESENTATION_REPRESENTATION('',(#13),#633);
#11=SHAPE_REPRESENTATION_RELATIONSHIP('SRR','None',#640,#12);
#12=ADVANCED_BREP_SHAPE_REPRESENTATION('',(#14),#632);
#13=STYLED_ITEM('',(#649),#14);
#14=MANIFOLD_SOLID_BREP('Solide1',#375);
#15=FACE_BOUND('',#82,.T.);
#16=FACE_BOUND('',#83,.T.);
#17=FACE_BOUND('',#85,.T.);
#18=FACE_BOUND('',#86,.T.);
#19=FACE_BOUND('',#92,.T.);
#20=FACE_BOUND('',#93,.T.);
#21=FACE_BOUND('',#95,.T.);
#22=FACE_BOUND('',#96,.T.);
#23=FACE_BOUND('',#98,.T.);
#24=FACE_BOUND('',#99,.T.);
#25=FACE_BOUND('',#100,.T.);
#26=FACE_BOUND('',#101,.T.);
#27=FACE_BOUND('',#103,.T.);
#28=FACE_BOUND('',#104,.T.);
#29=FACE_BOUND('',#105,.T.);
#30=FACE_BOUND('',#106,.T.);
#31=CIRCLE('',#398,2.05);
#32=CIRCLE('',#399,2.05);
#33=CIRCLE('',#401,2.05);
#34=CIRCLE('',#402,2.05);
#35=CIRCLE('',#404,2.05);
#36=CIRCLE('',#405,2.05);
#37=CIRCLE('',#407,2.05);
#38=CIRCLE('',#408,2.05);
#39=CIRCLE('',#410,2.05000000000001);
#40=CIRCLE('',#411,2.05000000000001);
#41=CIRCLE('',#413,2.05);
#42=CIRCLE('',#414,2.05);
#43=CIRCLE('',#419,2.05);
#44=CIRCLE('',#420,2.05);
#45=CIRCLE('',#422,2.05);
#46=CIRCLE('',#423,2.05);
#47=CYLINDRICAL_SURFACE('',#397,2.05);
#48=CYLINDRICAL_SURFACE('',#400,2.05);
#49=CYLINDRICAL_SURFACE('',#403,2.05);
#50=CYLINDRICAL_SURFACE('',#406,2.05);
#51=CYLINDRICAL_SURFACE('',#409,2.05000000000001);
#52=CYLINDRICAL_SURFACE('',#412,2.05);
#53=CYLINDRICAL_SURFACE('',#418,2.05);
#54=CYLINDRICAL_SURFACE('',#421,2.05);
#55=FACE_OUTER_BOUND('',#73,.T.);
#56=FACE_OUTER_BOUND('',#74,.T.);
#57=FACE_OUTER_BOUND('',#75,.T.);
#58=FACE_OUTER_BOUND('',#76,.T.);
#59=FACE_OUTER_BOUND('',#77,.T.);
#60=FACE_OUTER_BOUND('',#78,.T.);
#61=FACE_OUTER_BOUND('',#79,.T.);
#62=FACE_OUTER_BOUND('',#80,.T.);
#63=FACE_OUTER_BOUND('',#81,.T.);
#64=FACE_OUTER_BOUND('',#84,.T.);
#65=FACE_OUTER_BOUND('',#87,.T.);
#66=FACE_OUTER_BOUND('',#88,.T.);
#67=FACE_OUTER_BOUND('',#89,.T.);
#68=FACE_OUTER_BOUND('',#90,.T.);
#69=FACE_OUTER_BOUND('',#91,.T.);
#70=FACE_OUTER_BOUND('',#94,.T.);
#71=FACE_OUTER_BOUND('',#97,.T.);
#72=FACE_OUTER_BOUND('',#102,.T.);
#73=EDGE_LOOP('',(#251,#252,#253,#254));
#74=EDGE_LOOP('',(#255,#256,#257,#258));
#75=EDGE_LOOP('',(#259,#260,#261,#262));
#76=EDGE_LOOP('',(#263,#264,#265,#266));
#77=EDGE_LOOP('',(#267,#268,#269,#270));
#78=EDGE_LOOP('',(#271,#272,#273,#274));
#79=EDGE_LOOP('',(#275,#276,#277,#278));
#80=EDGE_LOOP('',(#279,#280,#281,#282));
#81=EDGE_LOOP('',(#283,#284,#285,#286));
#82=EDGE_LOOP('',(#287));
#83=EDGE_LOOP('',(#288));
#84=EDGE_LOOP('',(#289,#290,#291,#292));
#85=EDGE_LOOP('',(#293));
#86=EDGE_LOOP('',(#294));
#87=EDGE_LOOP('',(#295,#296,#297,#298,#299,#300,#301,#302));
#88=EDGE_LOOP('',(#303,#304,#305,#306));
#89=EDGE_LOOP('',(#307,#308,#309,#310));
#90=EDGE_LOOP('',(#311,#312,#313,#314,#315,#316,#317,#318));
#91=EDGE_LOOP('',(#319,#320,#321,#322));
#92=EDGE_LOOP('',(#323));
#93=EDGE_LOOP('',(#324));
#94=EDGE_LOOP('',(#325,#326,#327,#328));
#95=EDGE_LOOP('',(#329));
#96=EDGE_LOOP('',(#330));
#97=EDGE_LOOP('',(#331,#332,#333,#334));
#98=EDGE_LOOP('',(#335));
#99=EDGE_LOOP('',(#336));
#100=EDGE_LOOP('',(#337));
#101=EDGE_LOOP('',(#338));
#102=EDGE_LOOP('',(#339,#340,#341,#342));
#103=EDGE_LOOP('',(#343));
#104=EDGE_LOOP('',(#344));
#105=EDGE_LOOP('',(#345));
#106=EDGE_LOOP('',(#346));
#107=LINE('',#535,#139);
#108=LINE('',#537,#140);
#109=LINE('',#539,#141);
#110=LINE('',#540,#142);
#111=LINE('',#544,#143);
#112=LINE('',#546,#144);
#113=LINE('',#548,#145);
#114=LINE('',#549,#146);
#115=LINE('',#554,#147);
#116=LINE('',#560,#148);
#117=LINE('',#566,#149);
#118=LINE('',#572,#150);
#119=LINE('',#578,#151);
#120=LINE('',#584,#152);
#121=LINE('',#588,#153);
#122=LINE('',#590,#154);
#123=LINE('',#591,#155);
#124=LINE('',#594,#156);
#125=LINE('',#596,#157);
#126=LINE('',#597,#158);
#127=LINE('',#600,#159);
#128=LINE('',#602,#160);
#129=LINE('',#603,#161);
#130=LINE('',#604,#162);
#131=LINE('',#609,#163);
#132=LINE('',#615,#164);
#133=LINE('',#618,#165);
#134=LINE('',#620,#166);
#135=LINE('',#622,#167);
#136=LINE('',#623,#168);
#137=LINE('',#625,#169);
#138=LINE('',#627,#170);
#139=VECTOR('',#433,10.);
#140=VECTOR('',#434,10.);
#141=VECTOR('',#435,10.);
#142=VECTOR('',#436,10.);
#143=VECTOR('',#439,10.);
#144=VECTOR('',#440,10.);
#145=VECTOR('',#441,10.);
#146=VECTOR('',#442,10.);
#147=VECTOR('',#447,2.05);
#148=VECTOR('',#454,2.05);
#149=VECTOR('',#461,2.05);
#150=VECTOR('',#468,2.05);
#151=VECTOR('',#475,2.05000000000001);
#152=VECTOR('',#482,2.05);
#153=VECTOR('',#487,10.);
#154=VECTOR('',#488,10.);
#155=VECTOR('',#489,10.);
#156=VECTOR('',#492,10.);
#157=VECTOR('',#493,10.);
#158=VECTOR('',#494,10.);
#159=VECTOR('',#497,10.);
#160=VECTOR('',#498,10.);
#161=VECTOR('',#499,10.);
#162=VECTOR('',#500,10.);
#163=VECTOR('',#505,2.05);
#164=VECTOR('',#512,2.05);
#165=VECTOR('',#517,10.);
#166=VECTOR('',#518,10.);
#167=VECTOR('',#519,10.);
#168=VECTOR('',#520,10.);
#169=VECTOR('',#523,10.);
#170=VECTOR('',#526,10.);
#171=VERTEX_POINT('',#533);
#172=VERTEX_POINT('',#534);
#173=VERTEX_POINT('',#536);
#174=VERTEX_POINT('',#538);
#175=VERTEX_POINT('',#542);
#176=VERTEX_POINT('',#543);
#177=VERTEX_POINT('',#545);
#178=VERTEX_POINT('',#547);
#179=VERTEX_POINT('',#551);
#180=VERTEX_POINT('',#553);
#181=VERTEX_POINT('',#557);
#182=VERTEX_POINT('',#559);
#183=VERTEX_POINT('',#563);
#184=VERTEX_POINT('',#565);
#185=VERTEX_POINT('',#569);
#186=VERTEX_POINT('',#571);
#187=VERTEX_POINT('',#575);
#188=VERTEX_POINT('',#577);
#189=VERTEX_POINT('',#581);
#190=VERTEX_POINT('',#583);
#191=VERTEX_POINT('',#587);
#192=VERTEX_POINT('',#589);
#193=VERTEX_POINT('',#593);
#194=VERTEX_POINT('',#595);
#195=VERTEX_POINT('',#599);
#196=VERTEX_POINT('',#601);
#197=VERTEX_POINT('',#606);
#198=VERTEX_POINT('',#608);
#199=VERTEX_POINT('',#612);
#200=VERTEX_POINT('',#614);
#201=VERTEX_POINT('',#619);
#202=VERTEX_POINT('',#621);
#203=EDGE_CURVE('',#171,#172,#107,.T.);
#204=EDGE_CURVE('',#172,#173,#108,.T.);
#205=EDGE_CURVE('',#173,#174,#109,.T.);
#206=EDGE_CURVE('',#174,#171,#110,.T.);
#207=EDGE_CURVE('',#175,#176,#111,.T.);
#208=EDGE_CURVE('',#177,#176,#112,.T.);
#209=EDGE_CURVE('',#178,#177,#113,.T.);
#210=EDGE_CURVE('',#178,#175,#114,.T.);
#211=EDGE_CURVE('',#179,#179,#31,.T.);
#212=EDGE_CURVE('',#179,#180,#115,.T.);
#213=EDGE_CURVE('',#180,#180,#32,.T.);
#214=EDGE_CURVE('',#181,#181,#33,.T.);
#215=EDGE_CURVE('',#181,#182,#116,.T.);
#216=EDGE_CURVE('',#182,#182,#34,.T.);
#217=EDGE_CURVE('',#183,#183,#35,.T.);
#218=EDGE_CURVE('',#183,#184,#117,.T.);
#219=EDGE_CURVE('',#184,#184,#36,.T.);
#220=EDGE_CURVE('',#185,#185,#37,.T.);
#221=EDGE_CURVE('',#185,#186,#118,.T.);
#222=EDGE_CURVE('',#186,#186,#38,.T.);
#223=EDGE_CURVE('',#187,#187,#39,.T.);
#224=EDGE_CURVE('',#187,#188,#119,.T.);
#225=EDGE_CURVE('',#188,#188,#40,.T.);
#226=EDGE_CURVE('',#189,#189,#41,.T.);
#227=EDGE_CURVE('',#189,#190,#120,.T.);
#228=EDGE_CURVE('',#190,#190,#42,.T.);
#229=EDGE_CURVE('',#178,#191,#121,.T.);
#230=EDGE_CURVE('',#192,#177,#122,.T.);
#231=EDGE_CURVE('',#191,#192,#123,.T.);
#232=EDGE_CURVE('',#193,#175,#124,.T.);
#233=EDGE_CURVE('',#193,#194,#125,.T.);
#234=EDGE_CURVE('',#176,#194,#126,.T.);
#235=EDGE_CURVE('',#195,#174,#127,.T.);
#236=EDGE_CURVE('',#196,#173,#128,.T.);
#237=EDGE_CURVE('',#196,#192,#129,.T.);
#238=EDGE_CURVE('',#194,#195,#130,.T.);
#239=EDGE_CURVE('',#197,#197,#43,.T.);
#240=EDGE_CURVE('',#197,#198,#131,.T.);
#241=EDGE_CURVE('',#198,#198,#44,.T.);
#242=EDGE_CURVE('',#199,#199,#45,.T.);
#243=EDGE_CURVE('',#199,#200,#132,.T.);
#244=EDGE_CURVE('',#200,#200,#46,.T.);
#245=EDGE_CURVE('',#193,#191,#133,.T.);
#246=EDGE_CURVE('',#201,#196,#134,.T.);
#247=EDGE_CURVE('',#202,#201,#135,.T.);
#248=EDGE_CURVE('',#195,#202,#136,.T.);
#249=EDGE_CURVE('',#202,#171,#137,.T.);
#250=EDGE_CURVE('',#201,#172,#138,.T.);
#251=ORIENTED_EDGE('',*,*,#203,.T.);
#252=ORIENTED_EDGE('',*,*,#204,.T.);
#253=ORIENTED_EDGE('',*,*,#205,.T.);
#254=ORIENTED_EDGE('',*,*,#206,.T.);
#255=ORIENTED_EDGE('',*,*,#207,.T.);
#256=ORIENTED_EDGE('',*,*,#208,.F.);
#257=ORIENTED_EDGE('',*,*,#209,.F.);
#258=ORIENTED_EDGE('',*,*,#210,.T.);
#259=ORIENTED_EDGE('',*,*,#211,.F.);
#260=ORIENTED_EDGE('',*,*,#212,.T.);
#261=ORIENTED_EDGE('',*,*,#213,.F.);
#262=ORIENTED_EDGE('',*,*,#212,.F.);
#263=ORIENTED_EDGE('',*,*,#214,.F.);
#264=ORIENTED_EDGE('',*,*,#215,.T.);
#265=ORIENTED_EDGE('',*,*,#216,.F.);
#266=ORIENTED_EDGE('',*,*,#215,.F.);
#267=ORIENTED_EDGE('',*,*,#217,.F.);
#268=ORIENTED_EDGE('',*,*,#218,.T.);
#269=ORIENTED_EDGE('',*,*,#219,.F.);
#270=ORIENTED_EDGE('',*,*,#218,.F.);
#271=ORIENTED_EDGE('',*,*,#220,.F.);
#272=ORIENTED_EDGE('',*,*,#221,.T.);
#273=ORIENTED_EDGE('',*,*,#222,.F.);
#274=ORIENTED_EDGE('',*,*,#221,.F.);
#275=ORIENTED_EDGE('',*,*,#223,.F.);
#276=ORIENTED_EDGE('',*,*,#224,.T.);
#277=ORIENTED_EDGE('',*,*,#225,.F.);
#278=ORIENTED_EDGE('',*,*,#224,.F.);
#279=ORIENTED_EDGE('',*,*,#226,.F.);
#280=ORIENTED_EDGE('',*,*,#227,.T.);
#281=ORIENTED_EDGE('',*,*,#228,.F.);
#282=ORIENTED_EDGE('',*,*,#227,.F.);
#283=ORIENTED_EDGE('',*,*,#229,.F.);
#284=ORIENTED_EDGE('',*,*,#209,.T.);
#285=ORIENTED_EDGE('',*,*,#230,.F.);
#286=ORIENTED_EDGE('',*,*,#231,.F.);
#287=ORIENTED_EDGE('',*,*,#214,.T.);
#288=ORIENTED_EDGE('',*,*,#220,.T.);
#289=ORIENTED_EDGE('',*,*,#232,.F.);
#290=ORIENTED_EDGE('',*,*,#233,.T.);
#291=ORIENTED_EDGE('',*,*,#234,.F.);
#292=ORIENTED_EDGE('',*,*,#207,.F.);
#293=ORIENTED_EDGE('',*,*,#213,.T.);
#294=ORIENTED_EDGE('',*,*,#219,.T.);
#295=ORIENTED_EDGE('',*,*,#235,.T.);
#296=ORIENTED_EDGE('',*,*,#205,.F.);
#297=ORIENTED_EDGE('',*,*,#236,.F.);
#298=ORIENTED_EDGE('',*,*,#237,.T.);
#299=ORIENTED_EDGE('',*,*,#230,.T.);
#300=ORIENTED_EDGE('',*,*,#208,.T.);
#301=ORIENTED_EDGE('',*,*,#234,.T.);
#302=ORIENTED_EDGE('',*,*,#238,.T.);
#303=ORIENTED_EDGE('',*,*,#239,.F.);
#304=ORIENTED_EDGE('',*,*,#240,.T.);
#305=ORIENTED_EDGE('',*,*,#241,.F.);
#306=ORIENTED_EDGE('',*,*,#240,.F.);
#307=ORIENTED_EDGE('',*,*,#242,.F.);
#308=ORIENTED_EDGE('',*,*,#243,.T.);
#309=ORIENTED_EDGE('',*,*,#244,.F.);
#310=ORIENTED_EDGE('',*,*,#243,.F.);
#311=ORIENTED_EDGE('',*,*,#245,.T.);
#312=ORIENTED_EDGE('',*,*,#231,.T.);
#313=ORIENTED_EDGE('',*,*,#237,.F.);
#314=ORIENTED_EDGE('',*,*,#246,.F.);
#315=ORIENTED_EDGE('',*,*,#247,.F.);
#316=ORIENTED_EDGE('',*,*,#248,.F.);
#317=ORIENTED_EDGE('',*,*,#238,.F.);
#318=ORIENTED_EDGE('',*,*,#233,.F.);
#319=ORIENTED_EDGE('',*,*,#248,.T.);
#320=ORIENTED_EDGE('',*,*,#249,.T.);
#321=ORIENTED_EDGE('',*,*,#206,.F.);
#322=ORIENTED_EDGE('',*,*,#235,.F.);
#323=ORIENTED_EDGE('',*,*,#211,.T.);
#324=ORIENTED_EDGE('',*,*,#217,.T.);
#325=ORIENTED_EDGE('',*,*,#250,.F.);
#326=ORIENTED_EDGE('',*,*,#246,.T.);
#327=ORIENTED_EDGE('',*,*,#236,.T.);
#328=ORIENTED_EDGE('',*,*,#204,.F.);
#329=ORIENTED_EDGE('',*,*,#216,.T.);
#330=ORIENTED_EDGE('',*,*,#222,.T.);
#331=ORIENTED_EDGE('',*,*,#250,.T.);
#332=ORIENTED_EDGE('',*,*,#203,.F.);
#333=ORIENTED_EDGE('',*,*,#249,.F.);
#334=ORIENTED_EDGE('',*,*,#247,.T.);
#335=ORIENTED_EDGE('',*,*,#223,.T.);
#336=ORIENTED_EDGE('',*,*,#226,.T.);
#337=ORIENTED_EDGE('',*,*,#239,.T.);
#338=ORIENTED_EDGE('',*,*,#242,.T.);
#339=ORIENTED_EDGE('',*,*,#229,.T.);
#340=ORIENTED_EDGE('',*,*,#245,.F.);
#341=ORIENTED_EDGE('',*,*,#232,.T.);
#342=ORIENTED_EDGE('',*,*,#210,.F.);
#343=ORIENTED_EDGE('',*,*,#225,.T.);
#344=ORIENTED_EDGE('',*,*,#228,.T.);
#345=ORIENTED_EDGE('',*,*,#241,.T.);
#346=ORIENTED_EDGE('',*,*,#244,.T.);
#347=PLANE('',#395);
#348=PLANE('',#396);
#349=PLANE('',#415);
#350=PLANE('',#416);
#351=PLANE('',#417);
#352=PLANE('',#424);
#353=PLANE('',#425);
#354=PLANE('',#426);
#355=PLANE('',#427);
#356=PLANE('',#428);
#357=ADVANCED_FACE('',(#55),#347,.T.);
#358=ADVANCED_FACE('',(#56),#348,.F.);
#359=ADVANCED_FACE('',(#57),#47,.F.);
#360=ADVANCED_FACE('',(#58),#48,.F.);
#361=ADVANCED_FACE('',(#59),#49,.F.);
#362=ADVANCED_FACE('',(#60),#50,.F.);
#363=ADVANCED_FACE('',(#61),#51,.F.);
#364=ADVANCED_FACE('',(#62),#52,.F.);
#365=ADVANCED_FACE('',(#63,#15,#16),#349,.T.);
#366=ADVANCED_FACE('',(#64,#17,#18),#350,.T.);
#367=ADVANCED_FACE('',(#65),#351,.T.);
#368=ADVANCED_FACE('',(#66),#53,.F.);
#369=ADVANCED_FACE('',(#67),#54,.F.);
#370=ADVANCED_FACE('',(#68),#352,.T.);
#371=ADVANCED_FACE('',(#69,#19,#20),#353,.T.);
#372=ADVANCED_FACE('',(#70,#21,#22),#354,.T.);
#373=ADVANCED_FACE('',(#71,#23,#24,#25,#26),#355,.T.);
#374=ADVANCED_FACE('',(#72,#27,#28,#29,#30),#356,.F.);
#375=CLOSED_SHELL('',(#357,#358,#359,#360,#361,#362,#363,#364,#365,#366,
#367,#368,#369,#370,#371,#372,#373,#374));
#376=DERIVED_UNIT_ELEMENT(#378,1.);
#377=DERIVED_UNIT_ELEMENT(#635,3.);
#378=(
MASS_UNIT()
NAMED_UNIT(*)
SI_UNIT($,.GRAM.)
);
#379=DERIVED_UNIT((#376,#377));
#380=MEASURE_REPRESENTATION_ITEM('density measure',
POSITIVE_RATIO_MEASURE(1.),#379);
#381=PROPERTY_DEFINITION_REPRESENTATION(#386,#383);
#382=PROPERTY_DEFINITION_REPRESENTATION(#387,#384);
#383=REPRESENTATION('material name',(#385),#632);
#384=REPRESENTATION('density',(#380),#632);
#385=DESCRIPTIVE_REPRESENTATION_ITEM('G\X\E9n\X\E9rique','G\X\E9n\X\E9
rique');
#386=PROPERTY_DEFINITION('material property','material name',#642);
#387=PROPERTY_DEFINITION('material property','density of part',#642);
#388=DATE_TIME_ROLE('creation_date');
#389=APPLIED_DATE_AND_TIME_ASSIGNMENT(#390,#388,(#642));
#390=DATE_AND_TIME(#391,#392);
#391=CALENDAR_DATE(2019,15,2);
#392=LOCAL_TIME(20,44,10.,#393);
#393=COORDINATED_UNIVERSAL_TIME_OFFSET(0,0,.BEHIND.);
#394=AXIS2_PLACEMENT_3D('placement',#531,#429,#430);
#395=AXIS2_PLACEMENT_3D('',#532,#431,#432);
#396=AXIS2_PLACEMENT_3D('',#541,#437,#438);
#397=AXIS2_PLACEMENT_3D('',#550,#443,#444);
#398=AXIS2_PLACEMENT_3D('',#552,#445,#446);
#399=AXIS2_PLACEMENT_3D('',#555,#448,#449);
#400=AXIS2_PLACEMENT_3D('',#556,#450,#451);
#401=AXIS2_PLACEMENT_3D('',#558,#452,#453);
#402=AXIS2_PLACEMENT_3D('',#561,#455,#456);
#403=AXIS2_PLACEMENT_3D('',#562,#457,#458);
#404=AXIS2_PLACEMENT_3D('',#564,#459,#460);
#405=AXIS2_PLACEMENT_3D('',#567,#462,#463);
#406=AXIS2_PLACEMENT_3D('',#568,#464,#465);
#407=AXIS2_PLACEMENT_3D('',#570,#466,#467);
#408=AXIS2_PLACEMENT_3D('',#573,#469,#470);
#409=AXIS2_PLACEMENT_3D('',#574,#471,#472);
#410=AXIS2_PLACEMENT_3D('',#576,#473,#474);
#411=AXIS2_PLACEMENT_3D('',#579,#476,#477);
#412=AXIS2_PLACEMENT_3D('',#580,#478,#479);
#413=AXIS2_PLACEMENT_3D('',#582,#480,#481);
#414=AXIS2_PLACEMENT_3D('',#585,#483,#484);
#415=AXIS2_PLACEMENT_3D('',#586,#485,#486);
#416=AXIS2_PLACEMENT_3D('',#592,#490,#491);
#417=AXIS2_PLACEMENT_3D('',#598,#495,#496);
#418=AXIS2_PLACEMENT_3D('',#605,#501,#502);
#419=AXIS2_PLACEMENT_3D('',#607,#503,#504);
#420=AXIS2_PLACEMENT_3D('',#610,#506,#507);
#421=AXIS2_PLACEMENT_3D('',#611,#508,#509);
#422=AXIS2_PLACEMENT_3D('',#613,#510,#511);
#423=AXIS2_PLACEMENT_3D('',#616,#513,#514);
#424=AXIS2_PLACEMENT_3D('',#617,#515,#516);
#425=AXIS2_PLACEMENT_3D('',#624,#521,#522);
#426=AXIS2_PLACEMENT_3D('',#626,#524,#525);
#427=AXIS2_PLACEMENT_3D('',#628,#527,#528);
#428=AXIS2_PLACEMENT_3D('',#629,#529,#530);
#429=DIRECTION('axis',(0.,0.,1.));
#430=DIRECTION('refdir',(1.,0.,0.));
#431=DIRECTION('center_axis',(1.,0.,0.));
#432=DIRECTION('ref_axis',(0.,0.,-1.));
#433=DIRECTION('',(0.,0.,1.));
#434=DIRECTION('',(0.,-1.,0.));
#435=DIRECTION('',(0.,0.,-1.));
#436=DIRECTION('',(0.,1.,0.));
#437=DIRECTION('center_axis',(1.,0.,0.));
#438=DIRECTION('ref_axis',(0.,0.,-1.));
#439=DIRECTION('',(0.,-1.,0.));
#440=DIRECTION('',(0.,0.,-1.));
#441=DIRECTION('',(0.,-1.,0.));
#442=DIRECTION('',(0.,0.,-1.));
#443=DIRECTION('center_axis',(0.,0.,1.));
#444=DIRECTION('ref_axis',(1.,0.,0.));
#445=DIRECTION('center_axis',(0.,0.,1.));
#446=DIRECTION('ref_axis',(1.,0.,0.));
#447=DIRECTION('',(0.,0.,1.));
#448=DIRECTION('center_axis',(0.,0.,-1.));
#449=DIRECTION('ref_axis',(1.,0.,0.));
#450=DIRECTION('center_axis',(0.,0.,1.));
#451=DIRECTION('ref_axis',(1.,0.,0.));
#452=DIRECTION('center_axis',(0.,0.,1.));
#453=DIRECTION('ref_axis',(1.,0.,0.));
#454=DIRECTION('',(0.,0.,1.));
#455=DIRECTION('center_axis',(0.,0.,-1.));
#456=DIRECTION('ref_axis',(1.,0.,0.));
#457=DIRECTION('center_axis',(0.,0.,1.));
#458=DIRECTION('ref_axis',(1.,0.,0.));
#459=DIRECTION('center_axis',(0.,0.,1.));
#460=DIRECTION('ref_axis',(1.,0.,0.));
#461=DIRECTION('',(0.,0.,1.));
#462=DIRECTION('center_axis',(0.,0.,-1.));
#463=DIRECTION('ref_axis',(1.,0.,0.));
#464=DIRECTION('center_axis',(0.,0.,1.));
#465=DIRECTION('ref_axis',(1.,0.,0.));
#466=DIRECTION('center_axis',(0.,0.,1.));
#467=DIRECTION('ref_axis',(1.,0.,0.));
#468=DIRECTION('',(0.,0.,1.));
#469=DIRECTION('center_axis',(0.,0.,-1.));
#470=DIRECTION('ref_axis',(1.,0.,0.));
#471=DIRECTION('center_axis',(0.,-1.,0.));
#472=DIRECTION('ref_axis',(-1.,0.,0.));
#473=DIRECTION('center_axis',(0.,-1.,0.));
#474=DIRECTION('ref_axis',(-1.,0.,0.));
#475=DIRECTION('',(0.,-1.,0.));
#476=DIRECTION('center_axis',(0.,1.,0.));
#477=DIRECTION('ref_axis',(-1.,0.,0.));
#478=DIRECTION('center_axis',(0.,-1.,0.));
#479=DIRECTION('ref_axis',(-1.,0.,0.));
#480=DIRECTION('center_axis',(0.,-1.,0.));
#481=DIRECTION('ref_axis',(-1.,0.,0.));
#482=DIRECTION('',(0.,-1.,0.));
#483=DIRECTION('center_axis',(0.,1.,0.));
#484=DIRECTION('ref_axis',(-1.,0.,0.));
#485=DIRECTION('center_axis',(0.,0.,-1.));
#486=DIRECTION('ref_axis',(1.,0.,0.));
#487=DIRECTION('',(-1.,0.,0.));
#488=DIRECTION('',(1.,0.,0.));
#489=DIRECTION('',(0.,-1.,0.));
#490=DIRECTION('center_axis',(0.,0.,1.));
#491=DIRECTION('ref_axis',(-1.,0.,0.));
#492=DIRECTION('',(1.,0.,0.));
#493=DIRECTION('',(0.,-1.,0.));
#494=DIRECTION('',(-1.,0.,0.));
#495=DIRECTION('center_axis',(0.,-1.,0.));
#496=DIRECTION('ref_axis',(0.,0.,-1.));
#497=DIRECTION('',(1.,0.,0.));
#498=DIRECTION('',(1.,0.,0.));
#499=DIRECTION('',(0.,0.,-1.));
#500=DIRECTION('',(0.,0.,-1.));
#501=DIRECTION('center_axis',(0.,-1.,0.));
#502=DIRECTION('ref_axis',(-1.,0.,0.));
#503=DIRECTION('center_axis',(0.,-1.,0.));
#504=DIRECTION('ref_axis',(-1.,0.,0.));
#505=DIRECTION('',(0.,-1.,0.));
#506=DIRECTION('center_axis',(0.,1.,0.));
#507=DIRECTION('ref_axis',(-1.,0.,0.));
#508=DIRECTION('center_axis',(0.,-1.,0.));
#509=DIRECTION('ref_axis',(-1.,0.,0.));
#510=DIRECTION('center_axis',(0.,-1.,0.));
#511=DIRECTION('ref_axis',(-1.,0.,0.));
#512=DIRECTION('',(0.,-1.,0.));
#513=DIRECTION('center_axis',(0.,1.,0.));
#514=DIRECTION('ref_axis',(-1.,0.,0.));
#515=DIRECTION('center_axis',(-1.,0.,0.));
#516=DIRECTION('ref_axis',(0.,0.,1.));
#517=DIRECTION('',(0.,0.,1.));
#518=DIRECTION('',(0.,-1.,0.));
#519=DIRECTION('',(0.,0.,1.));
#520=DIRECTION('',(0.,1.,0.));
#521=DIRECTION('center_axis',(0.,0.,-1.));
#522=DIRECTION('ref_axis',(-1.,0.,0.));
#523=DIRECTION('',(1.,0.,0.));
#524=DIRECTION('center_axis',(0.,0.,1.));
#525=DIRECTION('ref_axis',(1.,0.,0.));
#526=DIRECTION('',(1.,0.,0.));
#527=DIRECTION('center_axis',(0.,1.,0.));
#528=DIRECTION('ref_axis',(0.,0.,1.));
#529=DIRECTION('center_axis',(0.,1.,0.));
#530=DIRECTION('ref_axis',(0.,0.,1.));
#531=CARTESIAN_POINT('',(0.,0.,0.));
#532=CARTESIAN_POINT('Origin',(210.,-52.5,-63.));
#533=CARTESIAN_POINT('',(210.,10.,-126.));
#534=CARTESIAN_POINT('',(210.,10.,0.));
#535=CARTESIAN_POINT('',(210.,10.,-126.));
#536=CARTESIAN_POINT('',(210.,-115.,0.));
#537=CARTESIAN_POINT('',(210.,10.,0.));
#538=CARTESIAN_POINT('',(210.,-115.,-126.));
#539=CARTESIAN_POINT('',(210.,-115.,0.));
#540=CARTESIAN_POINT('',(210.,-115.,-126.));
#541=CARTESIAN_POINT('Origin',(200.,-52.5,-63.));
#542=CARTESIAN_POINT('',(200.,0.,-116.));
#543=CARTESIAN_POINT('',(200.,-115.,-116.));
#544=CARTESIAN_POINT('',(200.,0.,-116.));
#545=CARTESIAN_POINT('',(200.,-115.,-10.));
#546=CARTESIAN_POINT('',(200.,-115.,0.));
#547=CARTESIAN_POINT('',(200.,0.,-10.));
#548=CARTESIAN_POINT('',(200.,0.,-10.));
#549=CARTESIAN_POINT('',(200.,0.,0.));
#550=CARTESIAN_POINT('Origin',(50.,-30.,-126.));
#551=CARTESIAN_POINT('',(47.95,-30.,-126.));
#552=CARTESIAN_POINT('Origin',(50.,-30.,-126.));
#553=CARTESIAN_POINT('',(47.95,-30.,-116.));
#554=CARTESIAN_POINT('',(47.95,-30.,-126.));
#555=CARTESIAN_POINT('Origin',(50.,-30.,-116.));
#556=CARTESIAN_POINT('Origin',(50.,-30.,-126.));
#557=CARTESIAN_POINT('',(47.95,-30.,-10.));
#558=CARTESIAN_POINT('Origin',(50.,-30.,-10.));
#559=CARTESIAN_POINT('',(47.95,-30.,0.));
#560=CARTESIAN_POINT('',(47.95,-30.,-126.));
#561=CARTESIAN_POINT('Origin',(50.,-30.,0.));
#562=CARTESIAN_POINT('Origin',(150.,-30.,-126.));
#563=CARTESIAN_POINT('',(147.95,-30.,-126.));
#564=CARTESIAN_POINT('Origin',(150.,-30.,-126.));
#565=CARTESIAN_POINT('',(147.95,-30.,-116.));
#566=CARTESIAN_POINT('',(147.95,-30.,-126.));
#567=CARTESIAN_POINT('Origin',(150.,-30.,-116.));
#568=CARTESIAN_POINT('Origin',(150.,-30.,-126.));
#569=CARTESIAN_POINT('',(147.95,-30.,-10.));
#570=CARTESIAN_POINT('Origin',(150.,-30.,-10.));
#571=CARTESIAN_POINT('',(147.95,-30.,0.));
#572=CARTESIAN_POINT('',(147.95,-30.,-126.));
#573=CARTESIAN_POINT('Origin',(150.,-30.,0.));
#574=CARTESIAN_POINT('Origin',(150.,10.,-98.));
#575=CARTESIAN_POINT('',(152.05,10.,-98.));
#576=CARTESIAN_POINT('Origin',(150.,10.,-98.));
#577=CARTESIAN_POINT('',(152.05,0.,-98.));
#578=CARTESIAN_POINT('',(152.05,10.,-98.));
#579=CARTESIAN_POINT('Origin',(150.,0.,-98.));
#580=CARTESIAN_POINT('Origin',(50.,10.,-98.));
#581=CARTESIAN_POINT('',(52.05,10.,-98.));
#582=CARTESIAN_POINT('Origin',(50.,10.,-98.));
#583=CARTESIAN_POINT('',(52.05,0.,-98.));
#584=CARTESIAN_POINT('',(52.05,10.,-98.));
#585=CARTESIAN_POINT('Origin',(50.,0.,-98.));
#586=CARTESIAN_POINT('Origin',(0.,0.,-10.));
#587=CARTESIAN_POINT('',(0.,0.,-10.));
#588=CARTESIAN_POINT('',(50.,0.,-10.));
#589=CARTESIAN_POINT('',(0.,-115.,-10.));
#590=CARTESIAN_POINT('',(200.,-115.,-10.));
#591=CARTESIAN_POINT('',(0.,0.,-10.));
#592=CARTESIAN_POINT('Origin',(200.,0.,-116.));
#593=CARTESIAN_POINT('',(0.,0.,-116.));
#594=CARTESIAN_POINT('',(150.,0.,-116.));
#595=CARTESIAN_POINT('',(0.,-115.,-116.));
#596=CARTESIAN_POINT('',(0.,0.,-116.));
#597=CARTESIAN_POINT('',(200.,-115.,-116.));
#598=CARTESIAN_POINT('Origin',(100.,-115.,-121.));
#599=CARTESIAN_POINT('',(0.,-115.,-126.));
#600=CARTESIAN_POINT('',(0.,-115.,-126.));
#601=CARTESIAN_POINT('',(0.,-115.,0.));
#602=CARTESIAN_POINT('',(200.,-115.,0.));
#603=CARTESIAN_POINT('',(0.,-115.,-10.));
#604=CARTESIAN_POINT('',(0.,-115.,-116.));
#605=CARTESIAN_POINT('Origin',(50.,10.,-28.));
#606=CARTESIAN_POINT('',(52.05,10.,-28.));
#607=CARTESIAN_POINT('Origin',(50.,10.,-28.));
#608=CARTESIAN_POINT('',(52.05,0.,-28.));
#609=CARTESIAN_POINT('',(52.05,10.,-28.));
#610=CARTESIAN_POINT('Origin',(50.,0.,-28.));
#611=CARTESIAN_POINT('Origin',(150.,10.,-28.));
#612=CARTESIAN_POINT('',(152.05,10.,-28.));
#613=CARTESIAN_POINT('Origin',(150.,10.,-28.));
#614=CARTESIAN_POINT('',(152.05,0.,-28.));
#615=CARTESIAN_POINT('',(152.05,10.,-28.));
#616=CARTESIAN_POINT('Origin',(150.,0.,-28.));
#617=CARTESIAN_POINT('Origin',(0.,0.,-126.));
#618=CARTESIAN_POINT('',(0.,0.,-126.));
#619=CARTESIAN_POINT('',(0.,10.,0.));
#620=CARTESIAN_POINT('',(0.,0.,0.));
#621=CARTESIAN_POINT('',(0.,10.,-126.));
#622=CARTESIAN_POINT('',(0.,10.,-126.));
#623=CARTESIAN_POINT('',(0.,0.,-126.));
#624=CARTESIAN_POINT('Origin',(200.,0.,-126.));
#625=CARTESIAN_POINT('',(200.,10.,-126.));
#626=CARTESIAN_POINT('Origin',(0.,0.,0.));
#627=CARTESIAN_POINT('',(0.,10.,0.));
#628=CARTESIAN_POINT('Origin',(100.,10.,-63.));
#629=CARTESIAN_POINT('Origin',(100.,0.,-63.));
#630=UNCERTAINTY_MEASURE_WITH_UNIT(LENGTH_MEASURE(0.01),#634,
'DISTANCE_ACCURACY_VALUE',
'Maximum model space distance between geometric entities at asserted c
onnectivities');
#631=UNCERTAINTY_MEASURE_WITH_UNIT(LENGTH_MEASURE(0.01),#634,
'DISTANCE_ACCURACY_VALUE',
'Maximum model space distance between geometric entities at asserted c
onnectivities');
#632=(
GEOMETRIC_REPRESENTATION_CONTEXT(3)
GLOBAL_UNCERTAINTY_ASSIGNED_CONTEXT((#630))
GLOBAL_UNIT_ASSIGNED_CONTEXT((#634,#637,#636))
REPRESENTATION_CONTEXT('','3D')
);
#633=(
GEOMETRIC_REPRESENTATION_CONTEXT(3)
GLOBAL_UNCERTAINTY_ASSIGNED_CONTEXT((#631))
GLOBAL_UNIT_ASSIGNED_CONTEXT((#634,#637,#636))
REPRESENTATION_CONTEXT('','3D')
);
#634=(
LENGTH_UNIT()
NAMED_UNIT(*)
SI_UNIT(.MILLI.,.METRE.)
);
#635=(
LENGTH_UNIT()
NAMED_UNIT(*)
SI_UNIT(.CENTI.,.METRE.)
);
#636=(
NAMED_UNIT(*)
SI_UNIT($,.STERADIAN.)
SOLID_ANGLE_UNIT()
);
#637=(
NAMED_UNIT(*)
PLANE_ANGLE_UNIT()
SI_UNIT($,.RADIAN.)
);
#638=SHAPE_DEFINITION_REPRESENTATION(#639,#640);
#639=PRODUCT_DEFINITION_SHAPE('',$,#642);
#640=SHAPE_REPRESENTATION('',(#394),#632);
#641=PRODUCT_DEFINITION_CONTEXT('part definition',#646,'design');
#642=PRODUCT_DEFINITION('Pi\X\E8ce200','Pi\X\E8ce200',#643,#641);
#643=PRODUCT_DEFINITION_FORMATION('',$,#648);
#644=PRODUCT_RELATED_PRODUCT_CATEGORY('Pi\X\E8ce200','Pi\X\E8ce200',(#648));
#645=APPLICATION_PROTOCOL_DEFINITION('international standard',
'automotive_design',2009,#646);
#646=APPLICATION_CONTEXT(
'Core Data for Automotive Mechanical Design Process');
#647=PRODUCT_CONTEXT('part definition',#646,'mechanical');
#648=PRODUCT('Pi\X\E8ce200','Pi\X\E8ce200',$,(#647));
#649=PRESENTATION_STYLE_ASSIGNMENT((#650));
#650=SURFACE_STYLE_USAGE(.BOTH.,#651);
#651=SURFACE_SIDE_STYLE('',(#652));
#652=SURFACE_STYLE_FILL_AREA(#653);
#653=FILL_AREA_STYLE('',(#654));
#654=FILL_AREA_STYLE_COLOUR('',#655);
#655=COLOUR_RGB('',0.749019607843137,0.749019607843137,0.749019607843137);
ENDSEC;
END-ISO-10303-21;
