ISO-10303-21;
HEADER;
FILE_DESCRIPTION(('CATIA V5 STEP Exchange'),'2;1');

FILE_NAME('O:\\Benji\\autre format\\Axe de Moyeux.stp','2019-01-15T18:25:04+00:00',('none'),('none'),'CATIA Version 5 Release 21 GA (IN-10)','CATIA V5 STEP AP203','none');

FILE_SCHEMA(('CONFIG_CONTROL_DESIGN'));

ENDSEC;
/* file written by CATIA V5R21 */
DATA;
#5=PRODUCT('Axe de Moyeux','','',(#2)) ;
#1=APPLICATION_CONTEXT('configuration controlled 3D design of mechanical parts and assemblies') ;
#14=PRODUCT_DEFINITION('',' ',#6,#3) ;
#16=SECURITY_CLASSIFICATION(' ',' ',#15) ;
#15=SECURITY_CLASSIFICATION_LEVEL('unclassified') ;
#47=CARTESIAN_POINT(' ',(0.,0.,0.)) ;
#52=CARTESIAN_POINT('Axis2P3D Location',(77.,0.,0.)) ;
#57=CARTESIAN_POINT('Axis2P3D Location',(116.,0.,0.)) ;
#61=CARTESIAN_POINT('Vertex',(116.,6.14307793323,3.35597877023)) ;
#63=CARTESIAN_POINT('Vertex',(116.,-6.14307793323,-3.35597877023)) ;
#66=CARTESIAN_POINT('Line Origine',(77.,6.14307793323,3.35597877023)) ;
#70=CARTESIAN_POINT('Vertex',(38.,6.14307793323,3.35597877023)) ;
#73=CARTESIAN_POINT('Axis2P3D Location',(38.,0.,0.)) ;
#77=CARTESIAN_POINT('Vertex',(38.,-6.14307793323,-3.35597877023)) ;
#80=CARTESIAN_POINT('Line Origine',(77.,-6.14307793323,-3.35597877023)) ;
#92=CARTESIAN_POINT('Axis2P3D Location',(116.,0.,0.)) ;
#97=CARTESIAN_POINT('Axis2P3D Location',(38.,0.,0.)) ;
#109=CARTESIAN_POINT('Axis2P3D Location',(116.,7.,0.)) ;
#118=CARTESIAN_POINT('Axis2P3D Location',(116.,0.,0.)) ;
#122=CARTESIAN_POINT('Vertex',(116.,4.38791280945,2.39712769302)) ;
#124=CARTESIAN_POINT('Vertex',(116.,-4.38791280945,-2.39712769302)) ;
#127=CARTESIAN_POINT('Axis2P3D Location',(116.,0.,0.)) ;
#137=CARTESIAN_POINT('Axis2P3D Location',(38.,5.,0.)) ;
#146=CARTESIAN_POINT('Axis2P3D Location',(38.,0.,0.)) ;
#150=CARTESIAN_POINT('Vertex',(38.,-4.38791280945,-2.39712769302)) ;
#152=CARTESIAN_POINT('Vertex',(38.,4.38791280945,2.39712769302)) ;
#155=CARTESIAN_POINT('Axis2P3D Location',(38.,0.,0.)) ;
#165=CARTESIAN_POINT('Axis2P3D Location',(77.,0.,0.)) ;
#170=CARTESIAN_POINT('Line Origine',(77.,-4.38791280945,-2.39712769302)) ;
#174=CARTESIAN_POINT('Vertex',(1.,-4.38791280945,-2.39712769302)) ;
#177=CARTESIAN_POINT('Line Origine',(77.,4.38791280945,2.39712769302)) ;
#181=CARTESIAN_POINT('Vertex',(1.,4.38791280945,2.39712769302)) ;
#184=CARTESIAN_POINT('Axis2P3D Location',(1.,0.,0.)) ;
#196=CARTESIAN_POINT('Axis2P3D Location',(1.,0.,0.)) ;
#208=CARTESIAN_POINT('Axis2P3D Location',(0.,0.,0.)) ;
#213=CARTESIAN_POINT('Axis2P3D Location',(0.,3.41860033135E-016,0.)) ;
#217=CARTESIAN_POINT('Vertex',(0.,-3.51033024756,-1.91770215442)) ;
#219=CARTESIAN_POINT('Vertex',(0.,3.51033024756,1.91770215442)) ;
#222=CARTESIAN_POINT('Axis2P3D Location',(0.,3.41860033135E-016,0.)) ;
#232=CARTESIAN_POINT('Axis2P3D Location',(-4.,9.5895513752E-015,2.22044604925E-015)) ;
#237=CARTESIAN_POINT('Line Origine',(0.5,3.94912152851,2.15741492372)) ;
#242=CARTESIAN_POINT('Line Origine',(0.5,-3.94912152851,-2.15741492372)) ;
#254=CARTESIAN_POINT('Axis2P3D Location',(-4.,2.22044604925E-016,7.88258347484E-015)) ;
#266=CARTESIAN_POINT('Line Origine',(77.,4.38791280945,2.39712769302)) ;
#270=CARTESIAN_POINT('Vertex',(153.,4.38791280945,2.39712769302)) ;
#273=CARTESIAN_POINT('Line Origine',(77.,-4.38791280945,-2.39712769302)) ;
#277=CARTESIAN_POINT('Vertex',(153.,-4.38791280945,-2.39712769302)) ;
#280=CARTESIAN_POINT('Axis2P3D Location',(153.,0.,0.)) ;
#292=CARTESIAN_POINT('Axis2P3D Location',(153.,0.,0.)) ;
#304=CARTESIAN_POINT('Axis2P3D Location',(154.,5.,0.)) ;
#309=CARTESIAN_POINT('Axis2P3D Location',(154.,8.881784197E-016,0.)) ;
#313=CARTESIAN_POINT('Vertex',(154.,3.51033024756,1.91770215442)) ;
#315=CARTESIAN_POINT('Vertex',(154.,-3.51033024756,-1.91770215442)) ;
#318=CARTESIAN_POINT('Axis2P3D Location',(154.,8.881784197E-016,0.)) ;
#328=CARTESIAN_POINT('Axis2P3D Location',(158.,9.5895513752E-015,2.22044604925E-015)) ;
#333=CARTESIAN_POINT('Line Origine',(153.5,3.94912152851,2.15741492372)) ;
#338=CARTESIAN_POINT('Line Origine',(153.5,-3.94912152851,-2.15741492372)) ;
#350=CARTESIAN_POINT('Axis2P3D Location',(158.,2.22044604925E-016,7.88258347484E-015)) ;
#53=DIRECTION('Axis2P3D Direction',(1.,0.,0.)) ;
#54=DIRECTION('Axis2P3D XDirection',(0.,0.87758256189,0.479425538604)) ;
#58=DIRECTION('Axis2P3D Direction',(1.,0.,0.)) ;
#67=DIRECTION('Vector Direction',(1.,0.,0.)) ;
#74=DIRECTION('Axis2P3D Direction',(1.,0.,0.)) ;
#81=DIRECTION('Vector Direction',(1.,0.,0.)) ;
#93=DIRECTION('Axis2P3D Direction',(1.,0.,0.)) ;
#98=DIRECTION('Axis2P3D Direction',(1.,0.,0.)) ;
#110=DIRECTION('Axis2P3D Direction',(1.,0.,0.)) ;
#111=DIRECTION('Axis2P3D XDirection',(0.,1.,0.)) ;
#119=DIRECTION('Axis2P3D Direction',(1.,0.,0.)) ;
#128=DIRECTION('Axis2P3D Direction',(1.,0.,0.)) ;
#138=DIRECTION('Axis2P3D Direction',(1.,0.,0.)) ;
#139=DIRECTION('Axis2P3D XDirection',(0.,1.,0.)) ;
#147=DIRECTION('Axis2P3D Direction',(1.,0.,0.)) ;
#156=DIRECTION('Axis2P3D Direction',(1.,0.,0.)) ;
#166=DIRECTION('Axis2P3D Direction',(1.,0.,0.)) ;
#167=DIRECTION('Axis2P3D XDirection',(0.,0.87758256189,0.479425538604)) ;
#171=DIRECTION('Vector Direction',(1.,0.,0.)) ;
#178=DIRECTION('Vector Direction',(1.,0.,0.)) ;
#185=DIRECTION('Axis2P3D Direction',(1.,0.,0.)) ;
#197=DIRECTION('Axis2P3D Direction',(1.,0.,0.)) ;
#209=DIRECTION('Axis2P3D Direction',(1.,0.,0.)) ;
#210=DIRECTION('Axis2P3D XDirection',(0.,1.,0.)) ;
#214=DIRECTION('Axis2P3D Direction',(1.,0.,0.)) ;
#223=DIRECTION('Axis2P3D Direction',(1.,0.,0.)) ;
#233=DIRECTION('Axis2P3D Direction',(1.,-2.22044604925E-015,-4.4408920985E-016)) ;
#234=DIRECTION('Axis2P3D XDirection',(2.23905132714E-015,0.87758256189,0.479425538604)) ;
#238=DIRECTION('Vector Direction',(0.707106781187,0.620544580564,0.339005049421)) ;
#243=DIRECTION('Vector Direction',(0.707106781187,-0.620544580564,-0.339005049421)) ;
#255=DIRECTION('Axis2P3D Direction',(1.,2.22044604925E-016,-1.66533453694E-015)) ;
#256=DIRECTION('Axis2P3D XDirection',(1.05367121277E-015,-0.853985976599,0.520296023213)) ;
#267=DIRECTION('Vector Direction',(1.,0.,0.)) ;
#274=DIRECTION('Vector Direction',(1.,0.,0.)) ;
#281=DIRECTION('Axis2P3D Direction',(1.,0.,0.)) ;
#293=DIRECTION('Axis2P3D Direction',(1.,0.,0.)) ;
#305=DIRECTION('Axis2P3D Direction',(1.,0.,0.)) ;
#306=DIRECTION('Axis2P3D XDirection',(0.,1.,0.)) ;
#310=DIRECTION('Axis2P3D Direction',(1.,0.,0.)) ;
#319=DIRECTION('Axis2P3D Direction',(1.,0.,0.)) ;
#329=DIRECTION('Axis2P3D Direction',(-1.,-2.22044604925E-015,-4.4408920985E-016)) ;
#330=DIRECTION('Axis2P3D XDirection',(-2.23905132714E-015,0.87758256189,0.479425538604)) ;
#334=DIRECTION('Vector Direction',(-0.707106781187,0.620544580564,0.339005049421)) ;
#339=DIRECTION('Vector Direction',(-0.707106781187,-0.620544580564,-0.339005049421)) ;
#351=DIRECTION('Axis2P3D Direction',(-1.,2.22044604925E-016,-1.66533453694E-015)) ;
#352=DIRECTION('Axis2P3D XDirection',(-1.05367121277E-015,-0.853985976599,0.520296023213)) ;
#48=AXIS2_PLACEMENT_3D(' ',#47,$,$) ;
#55=AXIS2_PLACEMENT_3D('Cylinder Axis2P3D',#52,#53,#54) ;
#59=AXIS2_PLACEMENT_3D('Circle Axis2P3D',#57,#58,$) ;
#75=AXIS2_PLACEMENT_3D('Circle Axis2P3D',#73,#74,$) ;
#94=AXIS2_PLACEMENT_3D('Circle Axis2P3D',#92,#93,$) ;
#99=AXIS2_PLACEMENT_3D('Circle Axis2P3D',#97,#98,$) ;
#112=AXIS2_PLACEMENT_3D('Plane Axis2P3D',#109,#110,#111) ;
#120=AXIS2_PLACEMENT_3D('Circle Axis2P3D',#118,#119,$) ;
#129=AXIS2_PLACEMENT_3D('Circle Axis2P3D',#127,#128,$) ;
#140=AXIS2_PLACEMENT_3D('Plane Axis2P3D',#137,#138,#139) ;
#148=AXIS2_PLACEMENT_3D('Circle Axis2P3D',#146,#147,$) ;
#157=AXIS2_PLACEMENT_3D('Circle Axis2P3D',#155,#156,$) ;
#168=AXIS2_PLACEMENT_3D('Cylinder Axis2P3D',#165,#166,#167) ;
#186=AXIS2_PLACEMENT_3D('Circle Axis2P3D',#184,#185,$) ;
#198=AXIS2_PLACEMENT_3D('Circle Axis2P3D',#196,#197,$) ;
#211=AXIS2_PLACEMENT_3D('Plane Axis2P3D',#208,#209,#210) ;
#215=AXIS2_PLACEMENT_3D('Circle Axis2P3D',#213,#214,$) ;
#224=AXIS2_PLACEMENT_3D('Circle Axis2P3D',#222,#223,$) ;
#235=AXIS2_PLACEMENT_3D('Cone Axis2P3D',#232,#233,#234) ;
#257=AXIS2_PLACEMENT_3D('Cone Axis2P3D',#254,#255,#256) ;
#282=AXIS2_PLACEMENT_3D('Circle Axis2P3D',#280,#281,$) ;
#294=AXIS2_PLACEMENT_3D('Circle Axis2P3D',#292,#293,$) ;
#307=AXIS2_PLACEMENT_3D('Plane Axis2P3D',#304,#305,#306) ;
#311=AXIS2_PLACEMENT_3D('Circle Axis2P3D',#309,#310,$) ;
#320=AXIS2_PLACEMENT_3D('Circle Axis2P3D',#318,#319,$) ;
#331=AXIS2_PLACEMENT_3D('Cone Axis2P3D',#328,#329,#330) ;
#353=AXIS2_PLACEMENT_3D('Cone Axis2P3D',#350,#351,#352) ;
#40=PRODUCT_DEFINITION_SHAPE(' ',' ',#14) ;
#31=APPROVAL_PERSON_ORGANIZATION(#25,#21,#19) ;
#25=PERSON_AND_ORGANIZATION(#22,#23) ;
#22=PERSON(' ',' ',' ',$,$,$) ;
#23=ORGANIZATION(' ',' ',' ') ;
#21=APPROVAL(#20,' ') ;
#20=APPROVAL_STATUS('not_yet_approved') ;
#19=APPROVAL_ROLE('APPROVER') ;
#13=DATE_AND_TIME(#11,#12) ;
#12=LOCAL_TIME(19,25,4.,#10) ;
#10=COORDINATED_UNIVERSAL_TIME_OFFSET(0,0,.AHEAD.) ;
#86=ORIENTED_EDGE('',*,*,#65,.F.) ;
#87=ORIENTED_EDGE('',*,*,#72,.T.) ;
#88=ORIENTED_EDGE('',*,*,#79,.T.) ;
#89=ORIENTED_EDGE('',*,*,#84,.F.) ;
#103=ORIENTED_EDGE('',*,*,#96,.F.) ;
#104=ORIENTED_EDGE('',*,*,#84,.T.) ;
#105=ORIENTED_EDGE('',*,*,#101,.T.) ;
#106=ORIENTED_EDGE('',*,*,#72,.F.) ;
#115=ORIENTED_EDGE('',*,*,#96,.T.) ;
#116=ORIENTED_EDGE('',*,*,#65,.T.) ;
#133=ORIENTED_EDGE('',*,*,#126,.F.) ;
#134=ORIENTED_EDGE('',*,*,#131,.F.) ;
#143=ORIENTED_EDGE('',*,*,#79,.F.) ;
#144=ORIENTED_EDGE('',*,*,#101,.F.) ;
#161=ORIENTED_EDGE('',*,*,#154,.T.) ;
#162=ORIENTED_EDGE('',*,*,#159,.T.) ;
#190=ORIENTED_EDGE('',*,*,#176,.F.) ;
#191=ORIENTED_EDGE('',*,*,#159,.F.) ;
#192=ORIENTED_EDGE('',*,*,#183,.T.) ;
#193=ORIENTED_EDGE('',*,*,#188,.T.) ;
#202=ORIENTED_EDGE('',*,*,#183,.F.) ;
#203=ORIENTED_EDGE('',*,*,#154,.F.) ;
#204=ORIENTED_EDGE('',*,*,#176,.T.) ;
#205=ORIENTED_EDGE('',*,*,#200,.T.) ;
#228=ORIENTED_EDGE('',*,*,#221,.F.) ;
#229=ORIENTED_EDGE('',*,*,#226,.F.) ;
#248=ORIENTED_EDGE('',*,*,#241,.T.) ;
#249=ORIENTED_EDGE('',*,*,#226,.T.) ;
#250=ORIENTED_EDGE('',*,*,#246,.F.) ;
#251=ORIENTED_EDGE('',*,*,#188,.F.) ;
#260=ORIENTED_EDGE('',*,*,#246,.T.) ;
#261=ORIENTED_EDGE('',*,*,#221,.T.) ;
#262=ORIENTED_EDGE('',*,*,#241,.F.) ;
#263=ORIENTED_EDGE('',*,*,#200,.F.) ;
#286=ORIENTED_EDGE('',*,*,#272,.T.) ;
#287=ORIENTED_EDGE('',*,*,#126,.T.) ;
#288=ORIENTED_EDGE('',*,*,#279,.F.) ;
#289=ORIENTED_EDGE('',*,*,#284,.F.) ;
#298=ORIENTED_EDGE('',*,*,#279,.T.) ;
#299=ORIENTED_EDGE('',*,*,#131,.T.) ;
#300=ORIENTED_EDGE('',*,*,#272,.F.) ;
#301=ORIENTED_EDGE('',*,*,#296,.F.) ;
#324=ORIENTED_EDGE('',*,*,#317,.T.) ;
#325=ORIENTED_EDGE('',*,*,#322,.T.) ;
#344=ORIENTED_EDGE('',*,*,#337,.T.) ;
#345=ORIENTED_EDGE('',*,*,#284,.T.) ;
#346=ORIENTED_EDGE('',*,*,#342,.F.) ;
#347=ORIENTED_EDGE('',*,*,#317,.F.) ;
#356=ORIENTED_EDGE('',*,*,#342,.T.) ;
#357=ORIENTED_EDGE('',*,*,#296,.T.) ;
#358=ORIENTED_EDGE('',*,*,#337,.F.) ;
#359=ORIENTED_EDGE('',*,*,#322,.F.) ;
#135=FACE_BOUND('',#132,.T.) ;
#163=FACE_BOUND('',#160,.T.) ;
#51=CLOSED_SHELL('Closed Shell',(#91,#108,#136,#164,#195,#207,#231,#253,#265,#291,#303,#327,#349,#361)) ;
#68=VECTOR('Line Direction',#67,1.) ;
#82=VECTOR('Line Direction',#81,1.) ;
#172=VECTOR('Line Direction',#171,1.) ;
#179=VECTOR('Line Direction',#178,1.) ;
#239=VECTOR('Line Direction',#238,1.) ;
#244=VECTOR('Line Direction',#243,1.) ;
#268=VECTOR('Line Direction',#267,1.) ;
#275=VECTOR('Line Direction',#274,1.) ;
#335=VECTOR('Line Direction',#334,1.) ;
#340=VECTOR('Line Direction',#339,1.) ;
#363=ADVANCED_BREP_SHAPE_REPRESENTATION('NONE',(#362),#46) ;
#49=SHAPE_REPRESENTATION(' ',(#48),#46) ;
#91=ADVANCED_FACE('PartBody',(#90),#56,.T.) ;
#108=ADVANCED_FACE('PartBody',(#107),#56,.T.) ;
#136=ADVANCED_FACE('PartBody',(#117,#135),#113,.T.) ;
#164=ADVANCED_FACE('PartBody',(#145,#163),#141,.F.) ;
#195=ADVANCED_FACE('PartBody',(#194),#169,.T.) ;
#207=ADVANCED_FACE('PartBody',(#206),#169,.T.) ;
#231=ADVANCED_FACE('PartBody',(#230),#212,.F.) ;
#253=ADVANCED_FACE('PartBody',(#252),#236,.T.) ;
#265=ADVANCED_FACE('PartBody',(#264),#258,.T.) ;
#291=ADVANCED_FACE('PartBody',(#290),#169,.T.) ;
#303=ADVANCED_FACE('PartBody',(#302),#169,.T.) ;
#327=ADVANCED_FACE('PartBody',(#326),#308,.T.) ;
#349=ADVANCED_FACE('PartBody',(#348),#332,.T.) ;
#361=ADVANCED_FACE('PartBody',(#360),#354,.T.) ;
#4=APPLICATION_PROTOCOL_DEFINITION('international standard','config_control_design',1994,#1) ;
#32=APPROVAL_DATE_TIME(#13,#21) ;
#362=MANIFOLD_SOLID_BREP('PartBody',#51) ;
#11=CALENDAR_DATE(2019,15,1) ;
#30=CC_DESIGN_APPROVAL(#21,(#16,#6,#14)) ;
#18=CC_DESIGN_DATE_AND_TIME_ASSIGNMENT(#13,#17,(#16)) ;
#29=CC_DESIGN_DATE_AND_TIME_ASSIGNMENT(#13,#28,(#14)) ;
#17=DATE_TIME_ROLE('classification_date') ;
#28=DATE_TIME_ROLE('creation_date') ;
#27=CC_DESIGN_PERSON_AND_ORGANIZATION_ASSIGNMENT(#25,#26,(#16)) ;
#33=CC_DESIGN_PERSON_AND_ORGANIZATION_ASSIGNMENT(#25,#34,(#6)) ;
#35=CC_DESIGN_PERSON_AND_ORGANIZATION_ASSIGNMENT(#25,#36,(#6,#14)) ;
#37=CC_DESIGN_PERSON_AND_ORGANIZATION_ASSIGNMENT(#25,#38,(#5)) ;
#26=PERSON_AND_ORGANIZATION_ROLE('classification_officer') ;
#34=PERSON_AND_ORGANIZATION_ROLE('design_supplier') ;
#36=PERSON_AND_ORGANIZATION_ROLE('creator') ;
#38=PERSON_AND_ORGANIZATION_ROLE('design_owner') ;
#39=CC_DESIGN_SECURITY_CLASSIFICATION(#16,(#6)) ;
#60=CIRCLE('generated circle',#59,7.) ;
#76=CIRCLE('generated circle',#75,7.) ;
#95=CIRCLE('generated circle',#94,7.) ;
#100=CIRCLE('generated circle',#99,7.) ;
#121=CIRCLE('generated circle',#120,5.) ;
#130=CIRCLE('generated circle',#129,5.) ;
#149=CIRCLE('generated circle',#148,5.) ;
#158=CIRCLE('generated circle',#157,5.) ;
#187=CIRCLE('generated circle',#186,5.) ;
#199=CIRCLE('generated circle',#198,5.) ;
#216=CIRCLE('generated circle',#215,4.) ;
#225=CIRCLE('generated circle',#224,4.) ;
#283=CIRCLE('generated circle',#282,5.) ;
#295=CIRCLE('generated circle',#294,5.) ;
#312=CIRCLE('generated circle',#311,4.) ;
#321=CIRCLE('generated circle',#320,4.) ;
#236=CONICAL_SURFACE('Cone',#235,0.,0.785398163397) ;
#258=CONICAL_SURFACE('Cone',#257,0.,0.785398163397) ;
#332=CONICAL_SURFACE('Cone',#331,0.,0.785398163397) ;
#354=CONICAL_SURFACE('Cone',#353,0.,0.785398163397) ;
#364=SHAPE_REPRESENTATION_RELATIONSHIP(' ',' ',#49,#363) ;
#56=CYLINDRICAL_SURFACE('generated cylinder',#55,7.) ;
#169=CYLINDRICAL_SURFACE('generated cylinder',#168,5.) ;
#3=DESIGN_CONTEXT(' ',#1,'design') ;
#65=EDGE_CURVE('',#62,#64,#60,.T.) ;
#72=EDGE_CURVE('',#62,#71,#69,.F.) ;
#79=EDGE_CURVE('',#71,#78,#76,.T.) ;
#84=EDGE_CURVE('',#64,#78,#83,.F.) ;
#96=EDGE_CURVE('',#64,#62,#95,.T.) ;
#101=EDGE_CURVE('',#78,#71,#100,.T.) ;
#126=EDGE_CURVE('',#123,#125,#121,.T.) ;
#131=EDGE_CURVE('',#125,#123,#130,.T.) ;
#154=EDGE_CURVE('',#151,#153,#149,.T.) ;
#159=EDGE_CURVE('',#153,#151,#158,.T.) ;
#176=EDGE_CURVE('',#151,#175,#173,.F.) ;
#183=EDGE_CURVE('',#153,#182,#180,.F.) ;
#188=EDGE_CURVE('',#182,#175,#187,.T.) ;
#200=EDGE_CURVE('',#175,#182,#199,.T.) ;
#221=EDGE_CURVE('',#218,#220,#216,.T.) ;
#226=EDGE_CURVE('',#220,#218,#225,.T.) ;
#241=EDGE_CURVE('',#182,#220,#240,.F.) ;
#246=EDGE_CURVE('',#175,#218,#245,.F.) ;
#272=EDGE_CURVE('',#271,#123,#269,.F.) ;
#279=EDGE_CURVE('',#278,#125,#276,.F.) ;
#284=EDGE_CURVE('',#271,#278,#283,.T.) ;
#296=EDGE_CURVE('',#278,#271,#295,.T.) ;
#317=EDGE_CURVE('',#314,#316,#312,.T.) ;
#322=EDGE_CURVE('',#316,#314,#321,.T.) ;
#337=EDGE_CURVE('',#314,#271,#336,.T.) ;
#342=EDGE_CURVE('',#316,#278,#341,.T.) ;
#85=EDGE_LOOP('',(#86,#87,#88,#89)) ;
#102=EDGE_LOOP('',(#103,#104,#105,#106)) ;
#114=EDGE_LOOP('',(#115,#116)) ;
#132=EDGE_LOOP('',(#133,#134)) ;
#142=EDGE_LOOP('',(#143,#144)) ;
#160=EDGE_LOOP('',(#161,#162)) ;
#189=EDGE_LOOP('',(#190,#191,#192,#193)) ;
#201=EDGE_LOOP('',(#202,#203,#204,#205)) ;
#227=EDGE_LOOP('',(#228,#229)) ;
#247=EDGE_LOOP('',(#248,#249,#250,#251)) ;
#259=EDGE_LOOP('',(#260,#261,#262,#263)) ;
#285=EDGE_LOOP('',(#286,#287,#288,#289)) ;
#297=EDGE_LOOP('',(#298,#299,#300,#301)) ;
#323=EDGE_LOOP('',(#324,#325)) ;
#343=EDGE_LOOP('',(#344,#345,#346,#347)) ;
#355=EDGE_LOOP('',(#356,#357,#358,#359)) ;
#90=FACE_OUTER_BOUND('',#85,.T.) ;
#107=FACE_OUTER_BOUND('',#102,.T.) ;
#117=FACE_OUTER_BOUND('',#114,.T.) ;
#145=FACE_OUTER_BOUND('',#142,.T.) ;
#194=FACE_OUTER_BOUND('',#189,.T.) ;
#206=FACE_OUTER_BOUND('',#201,.T.) ;
#230=FACE_OUTER_BOUND('',#227,.T.) ;
#252=FACE_OUTER_BOUND('',#247,.T.) ;
#264=FACE_OUTER_BOUND('',#259,.T.) ;
#290=FACE_OUTER_BOUND('',#285,.T.) ;
#302=FACE_OUTER_BOUND('',#297,.T.) ;
#326=FACE_OUTER_BOUND('',#323,.T.) ;
#348=FACE_OUTER_BOUND('',#343,.T.) ;
#360=FACE_OUTER_BOUND('',#355,.T.) ;
#45=UNCERTAINTY_MEASURE_WITH_UNIT(LENGTH_MEASURE(0.005),#41,'distance_accuracy_value','CONFUSED CURVE UNCERTAINTY') ;
#69=LINE('Line',#66,#68) ;
#83=LINE('Line',#80,#82) ;
#173=LINE('Line',#170,#172) ;
#180=LINE('Line',#177,#179) ;
#240=LINE('Line',#237,#239) ;
#245=LINE('Line',#242,#244) ;
#269=LINE('Line',#266,#268) ;
#276=LINE('Line',#273,#275) ;
#336=LINE('Line',#333,#335) ;
#341=LINE('Line',#338,#340) ;
#2=MECHANICAL_CONTEXT(' ',#1,'mechanical') ;
#24=PERSONAL_ADDRESS(' ',' ',' ',' ',' ',' ',' ',' ',' ',' ',' ',' ',(#22),' ') ;
#113=PLANE('',#112) ;
#141=PLANE('',#140) ;
#212=PLANE('',#211) ;
#308=PLANE('',#307) ;
#43=PLANE_ANGLE_MEASURE_WITH_UNIT(PLANE_ANGLE_MEASURE(0.0174532925199),#42) ;
#7=PRODUCT_CATEGORY('part',$) ;
#9=PRODUCT_CATEGORY_RELATIONSHIP(' ',' ',#7,#8) ;
#6=PRODUCT_DEFINITION_FORMATION_WITH_SPECIFIED_SOURCE('',' ',#5,.NOT_KNOWN.) ;
#8=PRODUCT_RELATED_PRODUCT_CATEGORY('detail',$,(#5)) ;
#50=SHAPE_DEFINITION_REPRESENTATION(#40,#49) ;
#62=VERTEX_POINT('',#61) ;
#64=VERTEX_POINT('',#63) ;
#71=VERTEX_POINT('',#70) ;
#78=VERTEX_POINT('',#77) ;
#123=VERTEX_POINT('',#122) ;
#125=VERTEX_POINT('',#124) ;
#151=VERTEX_POINT('',#150) ;
#153=VERTEX_POINT('',#152) ;
#175=VERTEX_POINT('',#174) ;
#182=VERTEX_POINT('',#181) ;
#218=VERTEX_POINT('',#217) ;
#220=VERTEX_POINT('',#219) ;
#271=VERTEX_POINT('',#270) ;
#278=VERTEX_POINT('',#277) ;
#314=VERTEX_POINT('',#313) ;
#316=VERTEX_POINT('',#315) ;
#41=(LENGTH_UNIT()NAMED_UNIT(*)SI_UNIT(.MILLI.,.METRE.)) ;
#42=(NAMED_UNIT(*)PLANE_ANGLE_UNIT()SI_UNIT($,.RADIAN.)) ;
#44=(NAMED_UNIT(*)SI_UNIT($,.STERADIAN.)SOLID_ANGLE_UNIT()) ;
#46=(GEOMETRIC_REPRESENTATION_CONTEXT(3)GLOBAL_UNCERTAINTY_ASSIGNED_CONTEXT((#45))GLOBAL_UNIT_ASSIGNED_CONTEXT((#41,#42,#44))REPRESENTATION_CONTEXT(' ',' ')) ;
ENDSEC;
END-ISO-10303-21;
