ISO-10303-21;
HEADER;
FILE_DESCRIPTION(('CATIA V5 STEP Exchange'),'2;1');

FILE_NAME('D:\\quentin\\bricolage\\projet char-latant\\Mk0.1\\CG4 chaines\\DTA\\usinage\\plans\\100C6\\arbre 3.stp','2019-02-28T18:16:50+00:00',('none'),('none'),'CATIA Version 5 Release 20 GA (IN-10)','CATIA V5 STEP AP203','none');

FILE_SCHEMA(('CONFIG_CONTROL_DESIGN'));

ENDSEC;
/* file written by CATIA V5R20 */
DATA;
#5=PRODUCT('arbre 3','','',(#2)) ;
#1=APPLICATION_CONTEXT('configuration controlled 3D design of mechanical parts and assemblies') ;
#14=PRODUCT_DEFINITION('',' ',#6,#3) ;
#16=SECURITY_CLASSIFICATION(' ',' ',#15) ;
#15=SECURITY_CLASSIFICATION_LEVEL('unclassified') ;
#47=CARTESIAN_POINT(' ',(0.,0.,0.)) ;
#52=CARTESIAN_POINT('Axis2P3D Location',(0.,2.5,12.8133459091)) ;
#58=CARTESIAN_POINT('Control Point',(3.33066907388E-016,2.5,7.07106781187)) ;
#59=CARTESIAN_POINT('Control Point',(-0.179350884397,2.5,7.26129815172)) ;
#60=CARTESIAN_POINT('Control Point',(-0.36833915821,2.5,7.46103969328)) ;
#61=CARTESIAN_POINT('Control Point',(-0.567675120131,2.5,7.67098866268)) ;
#62=CARTESIAN_POINT('Control Point',(-0.778033607046,2.5,7.89179992346)) ;
#63=CARTESIAN_POINT('Control Point',(-1.,2.5,8.12403840464)) ;
#64=CARTESIAN_POINT('Vertex',(0.,2.5,7.07106781187)) ;
#66=CARTESIAN_POINT('Vertex',(-1.,2.5,8.12403840464)) ;
#69=CARTESIAN_POINT('Line Origine',(-173.,2.5,8.12403840464)) ;
#73=CARTESIAN_POINT('Vertex',(-345.,2.5,8.12403840464)) ;
#77=CARTESIAN_POINT('Control Point',(-346.,2.5,7.07106781187)) ;
#78=CARTESIAN_POINT('Control Point',(-345.820649116,2.5,7.26129815172)) ;
#79=CARTESIAN_POINT('Control Point',(-345.631660842,2.5,7.46103969328)) ;
#80=CARTESIAN_POINT('Control Point',(-345.43232488,2.5,7.67098866267)) ;
#81=CARTESIAN_POINT('Control Point',(-345.221966393,2.5,7.89179992346)) ;
#82=CARTESIAN_POINT('Control Point',(-345.,2.5,8.12403840464)) ;
#83=CARTESIAN_POINT('Vertex',(-346.,2.5,7.07106781187)) ;
#86=CARTESIAN_POINT('Line Origine',(-346.,2.5,6.28553390593)) ;
#90=CARTESIAN_POINT('Vertex',(-346.,2.5,5.5)) ;
#93=CARTESIAN_POINT('Line Origine',(-173.,2.5,5.5)) ;
#97=CARTESIAN_POINT('Vertex',(0.,2.5,5.5)) ;
#100=CARTESIAN_POINT('Line Origine',(0.,2.5,6.28553390593)) ;
#114=CARTESIAN_POINT('Axis2P3D Location',(0.,0.,0.)) ;
#119=CARTESIAN_POINT('Axis2P3D Location',(0.,6.14959472234E-016,2.77555756156E-017)) ;
#123=CARTESIAN_POINT('Vertex',(-5.55111512313E-017,-2.5,7.07106781187)) ;
#125=CARTESIAN_POINT('Vertex',(0.,-7.5,-6.97477980674E-009)) ;
#128=CARTESIAN_POINT('Axis2P3D Location',(0.,8.881784197E-016,-2.91928211205E-016)) ;
#132=CARTESIAN_POINT('Vertex',(0.,7.5,-8.79017588969E-015)) ;
#135=CARTESIAN_POINT('Axis2P3D Location',(0.,6.14959472234E-016,2.77555756156E-017)) ;
#140=CARTESIAN_POINT('Line Origine',(0.,0.,5.5)) ;
#144=CARTESIAN_POINT('Vertex',(0.,-2.5,5.5)) ;
#147=CARTESIAN_POINT('Line Origine',(0.,-2.5,6.28553390593)) ;
#161=CARTESIAN_POINT('Axis2P3D Location',(7.5,4.66293670343E-015,-9.32587340685E-015)) ;
#166=CARTESIAN_POINT('Line Origine',(-0.5,8.,-5.48580788638E-016)) ;
#170=CARTESIAN_POINT('Vertex',(-1.,8.5,-2.0818308015E-015)) ;
#173=CARTESIAN_POINT('Axis2P3D Location',(-1.,8.881784197E-016,-1.7763568394E-015)) ;
#186=CARTESIAN_POINT('Control Point',(1.24344978758E-014,-2.5,7.07106781187)) ;
#187=CARTESIAN_POINT('Control Point',(-0.298918140654,-2.5,7.38811837828)) ;
#188=CARTESIAN_POINT('Control Point',(-0.630056011752,-2.5,7.73697426935)) ;
#189=CARTESIAN_POINT('Control Point',(-1.,-2.5,8.12403840464)) ;
#190=CARTESIAN_POINT('Vertex',(-1.,-2.5,8.12403840464)) ;
#193=CARTESIAN_POINT('Axis2P3D Location',(-1.,8.881784197E-016,-1.7763568394E-015)) ;
#197=CARTESIAN_POINT('Vertex',(-1.,-8.5,1.04091540075E-015)) ;
#200=CARTESIAN_POINT('Line Origine',(-0.5,-8.,1.50244910467E-016)) ;
#212=CARTESIAN_POINT('Axis2P3D Location',(7.5,7.54951656745E-015,-1.02140518266E-014)) ;
#217=CARTESIAN_POINT('Axis2P3D Location',(-1.,-1.10440526731E-029,1.11022302463E-015)) ;
#229=CARTESIAN_POINT('Axis2P3D Location',(-173.,0.,0.)) ;
#234=CARTESIAN_POINT('Axis2P3D Location',(-345.,0.,0.)) ;
#238=CARTESIAN_POINT('Vertex',(-345.,-2.5,8.12403840464)) ;
#240=CARTESIAN_POINT('Vertex',(-345.,-8.5,1.04091540075E-015)) ;
#243=CARTESIAN_POINT('Line Origine',(-173.,-8.5,1.04091540075E-015)) ;
#248=CARTESIAN_POINT('Line Origine',(-173.,-2.5,8.12403840464)) ;
#260=CARTESIAN_POINT('Line Origine',(-173.,8.5,-2.0818308015E-015)) ;
#264=CARTESIAN_POINT('Vertex',(-345.,8.5,-2.0818308015E-015)) ;
#267=CARTESIAN_POINT('Axis2P3D Location',(-345.,0.,0.)) ;
#279=CARTESIAN_POINT('Axis2P3D Location',(-353.5,4.66293670343E-015,-9.32587340685E-015)) ;
#284=CARTESIAN_POINT('Axis2P3D Location',(-346.,1.33226762955E-015,-2.6645352591E-015)) ;
#288=CARTESIAN_POINT('Vertex',(-346.,-2.5,7.07106781187)) ;
#290=CARTESIAN_POINT('Vertex',(-346.,-7.5,-6.97477980674E-009)) ;
#293=CARTESIAN_POINT('Line Origine',(-345.5,-8.,-7.43976243353E-009)) ;
#299=CARTESIAN_POINT('Control Point',(-346.,-2.5,7.07106781187)) ;
#300=CARTESIAN_POINT('Control Point',(-345.701081859,-2.5,7.38811837827)) ;
#301=CARTESIAN_POINT('Control Point',(-345.369943988,-2.5,7.73697426936)) ;
#302=CARTESIAN_POINT('Control Point',(-345.,-2.5,8.12403840464)) ;
#311=CARTESIAN_POINT('Axis2P3D Location',(-353.5,7.54951656745E-015,-1.02140518266E-014)) ;
#316=CARTESIAN_POINT('Axis2P3D Location',(-346.,8.881784197E-016,-2.22044604925E-016)) ;
#320=CARTESIAN_POINT('Vertex',(-346.,7.5,-8.79017588969E-015)) ;
#323=CARTESIAN_POINT('Line Origine',(-345.5,8.,4.4408920985E-016)) ;
#335=CARTESIAN_POINT('Axis2P3D Location',(0.,-2.5,5.5)) ;
#340=CARTESIAN_POINT('Line Origine',(-346.,-2.5,6.28553390593)) ;
#344=CARTESIAN_POINT('Vertex',(-346.,-2.5,5.5)) ;
#347=CARTESIAN_POINT('Line Origine',(-173.,-2.5,5.5)) ;
#361=CARTESIAN_POINT('Axis2P3D Location',(-345.,0.,0.)) ;
#373=CARTESIAN_POINT('Axis2P3D Location',(-346.,1.33226762955E-015,-2.6645352591E-015)) ;
#385=CARTESIAN_POINT('Axis2P3D Location',(-346.,0.,0.)) ;
#390=CARTESIAN_POINT('Line Origine',(-346.,0.,5.5)) ;
#404=CARTESIAN_POINT('Axis2P3D Location',(0.,2.5,5.5)) ;
#53=DIRECTION('Axis2P3D Direction',(0.,1.,0.)) ;
#54=DIRECTION('Axis2P3D XDirection',(0.,0.,-1.)) ;
#70=DIRECTION('Vector Direction',(1.,0.,0.)) ;
#87=DIRECTION('Vector Direction',(0.,0.,1.)) ;
#94=DIRECTION('Vector Direction',(-1.,0.,0.)) ;
#101=DIRECTION('Vector Direction',(0.,0.,-1.)) ;
#115=DIRECTION('Axis2P3D Direction',(1.,0.,0.)) ;
#116=DIRECTION('Axis2P3D XDirection',(0.,1.,0.)) ;
#120=DIRECTION('Axis2P3D Direction',(1.,0.,0.)) ;
#129=DIRECTION('Axis2P3D Direction',(1.,0.,0.)) ;
#136=DIRECTION('Axis2P3D Direction',(1.,0.,0.)) ;
#141=DIRECTION('Vector Direction',(0.,-1.,0.)) ;
#148=DIRECTION('Vector Direction',(0.,0.,1.)) ;
#162=DIRECTION('Axis2P3D Direction',(-1.,-4.4408920985E-016,8.881784197E-016)) ;
#163=DIRECTION('Axis2P3D XDirection',(-3.9512670479E-016,1.,2.70213475268E-016)) ;
#167=DIRECTION('Vector Direction',(-0.707106781187,0.707106781187,7.7581039135E-016)) ;
#174=DIRECTION('Axis2P3D Direction',(1.,2.39997777445E-031,-8.881784197E-016)) ;
#194=DIRECTION('Axis2P3D Direction',(1.,2.39997777445E-031,-8.881784197E-016)) ;
#201=DIRECTION('Vector Direction',(-0.707106781187,-0.707106781187,8.37578440188E-016)) ;
#213=DIRECTION('Axis2P3D Direction',(-1.,-8.881784197E-016,1.33226762955E-015)) ;
#214=DIRECTION('Axis2P3D XDirection',(1.44879791756E-015,-0.873360243774,0.487074824431)) ;
#218=DIRECTION('Axis2P3D Direction',(1.,-3.56022586086E-016,-6.38374140844E-016)) ;
#230=DIRECTION('Axis2P3D Direction',(1.,0.,0.)) ;
#231=DIRECTION('Axis2P3D XDirection',(0.,1.,0.)) ;
#235=DIRECTION('Axis2P3D Direction',(1.,0.,0.)) ;
#244=DIRECTION('Vector Direction',(1.,0.,0.)) ;
#249=DIRECTION('Vector Direction',(1.,0.,0.)) ;
#261=DIRECTION('Vector Direction',(1.,0.,0.)) ;
#268=DIRECTION('Axis2P3D Direction',(1.,0.,0.)) ;
#280=DIRECTION('Axis2P3D Direction',(1.,-4.4408920985E-016,8.881784197E-016)) ;
#281=DIRECTION('Axis2P3D XDirection',(3.9512670479E-016,1.,2.70213475268E-016)) ;
#285=DIRECTION('Axis2P3D Direction',(1.,-2.39997777445E-031,8.881784197E-016)) ;
#294=DIRECTION('Vector Direction',(0.707106781187,-0.707106781187,-6.57587484097E-010)) ;
#312=DIRECTION('Axis2P3D Direction',(1.,-8.881784197E-016,1.33226762955E-015)) ;
#313=DIRECTION('Axis2P3D XDirection',(-1.44879791756E-015,-0.873360243774,0.487074824431)) ;
#317=DIRECTION('Axis2P3D Direction',(1.,3.56022586086E-016,6.38374140844E-016)) ;
#324=DIRECTION('Vector Direction',(0.707106781187,0.707106781187,3.14018491737E-016)) ;
#336=DIRECTION('Axis2P3D Direction',(0.,-1.,0.)) ;
#337=DIRECTION('Axis2P3D XDirection',(0.,0.,1.)) ;
#341=DIRECTION('Vector Direction',(0.,0.,1.)) ;
#348=DIRECTION('Vector Direction',(-1.,0.,0.)) ;
#362=DIRECTION('Axis2P3D Direction',(1.,0.,0.)) ;
#374=DIRECTION('Axis2P3D Direction',(1.,-2.39997777445E-031,8.881784197E-016)) ;
#386=DIRECTION('Axis2P3D Direction',(1.,0.,0.)) ;
#387=DIRECTION('Axis2P3D XDirection',(0.,1.,0.)) ;
#391=DIRECTION('Vector Direction',(0.,-1.,0.)) ;
#405=DIRECTION('Axis2P3D Direction',(-0.,-0.,-1.)) ;
#406=DIRECTION('Axis2P3D XDirection',(0.,-1.,0.)) ;
#48=AXIS2_PLACEMENT_3D(' ',#47,$,$) ;
#55=AXIS2_PLACEMENT_3D('Plane Axis2P3D',#52,#53,#54) ;
#117=AXIS2_PLACEMENT_3D('Plane Axis2P3D',#114,#115,#116) ;
#121=AXIS2_PLACEMENT_3D('Circle Axis2P3D',#119,#120,$) ;
#130=AXIS2_PLACEMENT_3D('Circle Axis2P3D',#128,#129,$) ;
#137=AXIS2_PLACEMENT_3D('Circle Axis2P3D',#135,#136,$) ;
#164=AXIS2_PLACEMENT_3D('Cone Axis2P3D',#161,#162,#163) ;
#175=AXIS2_PLACEMENT_3D('Circle Axis2P3D',#173,#174,$) ;
#195=AXIS2_PLACEMENT_3D('Circle Axis2P3D',#193,#194,$) ;
#215=AXIS2_PLACEMENT_3D('Cone Axis2P3D',#212,#213,#214) ;
#219=AXIS2_PLACEMENT_3D('Circle Axis2P3D',#217,#218,$) ;
#232=AXIS2_PLACEMENT_3D('Cylinder Axis2P3D',#229,#230,#231) ;
#236=AXIS2_PLACEMENT_3D('Circle Axis2P3D',#234,#235,$) ;
#269=AXIS2_PLACEMENT_3D('Circle Axis2P3D',#267,#268,$) ;
#282=AXIS2_PLACEMENT_3D('Cone Axis2P3D',#279,#280,#281) ;
#286=AXIS2_PLACEMENT_3D('Circle Axis2P3D',#284,#285,$) ;
#314=AXIS2_PLACEMENT_3D('Cone Axis2P3D',#311,#312,#313) ;
#318=AXIS2_PLACEMENT_3D('Circle Axis2P3D',#316,#317,$) ;
#338=AXIS2_PLACEMENT_3D('Plane Axis2P3D',#335,#336,#337) ;
#363=AXIS2_PLACEMENT_3D('Circle Axis2P3D',#361,#362,$) ;
#375=AXIS2_PLACEMENT_3D('Circle Axis2P3D',#373,#374,$) ;
#388=AXIS2_PLACEMENT_3D('Plane Axis2P3D',#385,#386,#387) ;
#407=AXIS2_PLACEMENT_3D('Plane Axis2P3D',#404,#405,#406) ;
#40=PRODUCT_DEFINITION_SHAPE(' ',' ',#14) ;
#31=APPROVAL_PERSON_ORGANIZATION(#25,#21,#19) ;
#25=PERSON_AND_ORGANIZATION(#22,#23) ;
#22=PERSON(' ',' ',' ',$,$,$) ;
#23=ORGANIZATION(' ',' ',' ') ;
#21=APPROVAL(#20,' ') ;
#20=APPROVAL_STATUS('not_yet_approved') ;
#19=APPROVAL_ROLE('APPROVER') ;
#13=DATE_AND_TIME(#11,#12) ;
#12=LOCAL_TIME(19,16,50.,#10) ;
#10=COORDINATED_UNIVERSAL_TIME_OFFSET(0,0,.AHEAD.) ;
#106=ORIENTED_EDGE('',*,*,#68,.T.) ;
#107=ORIENTED_EDGE('',*,*,#75,.F.) ;
#108=ORIENTED_EDGE('',*,*,#85,.F.) ;
#109=ORIENTED_EDGE('',*,*,#92,.F.) ;
#110=ORIENTED_EDGE('',*,*,#99,.F.) ;
#111=ORIENTED_EDGE('',*,*,#104,.T.) ;
#153=ORIENTED_EDGE('',*,*,#127,.T.) ;
#154=ORIENTED_EDGE('',*,*,#134,.T.) ;
#155=ORIENTED_EDGE('',*,*,#139,.T.) ;
#156=ORIENTED_EDGE('',*,*,#104,.F.) ;
#157=ORIENTED_EDGE('',*,*,#146,.F.) ;
#158=ORIENTED_EDGE('',*,*,#151,.F.) ;
#179=ORIENTED_EDGE('',*,*,#68,.F.) ;
#180=ORIENTED_EDGE('',*,*,#139,.F.) ;
#181=ORIENTED_EDGE('',*,*,#172,.T.) ;
#182=ORIENTED_EDGE('',*,*,#177,.T.) ;
#206=ORIENTED_EDGE('',*,*,#192,.T.) ;
#207=ORIENTED_EDGE('',*,*,#199,.T.) ;
#208=ORIENTED_EDGE('',*,*,#204,.F.) ;
#209=ORIENTED_EDGE('',*,*,#127,.F.) ;
#223=ORIENTED_EDGE('',*,*,#204,.T.) ;
#224=ORIENTED_EDGE('',*,*,#221,.T.) ;
#225=ORIENTED_EDGE('',*,*,#172,.F.) ;
#226=ORIENTED_EDGE('',*,*,#134,.F.) ;
#254=ORIENTED_EDGE('',*,*,#242,.T.) ;
#255=ORIENTED_EDGE('',*,*,#247,.F.) ;
#256=ORIENTED_EDGE('',*,*,#199,.F.) ;
#257=ORIENTED_EDGE('',*,*,#252,.F.) ;
#273=ORIENTED_EDGE('',*,*,#266,.F.) ;
#274=ORIENTED_EDGE('',*,*,#221,.F.) ;
#275=ORIENTED_EDGE('',*,*,#247,.T.) ;
#276=ORIENTED_EDGE('',*,*,#271,.T.) ;
#305=ORIENTED_EDGE('',*,*,#292,.T.) ;
#306=ORIENTED_EDGE('',*,*,#297,.F.) ;
#307=ORIENTED_EDGE('',*,*,#242,.F.) ;
#308=ORIENTED_EDGE('',*,*,#303,.F.) ;
#329=ORIENTED_EDGE('',*,*,#297,.T.) ;
#330=ORIENTED_EDGE('',*,*,#322,.T.) ;
#331=ORIENTED_EDGE('',*,*,#327,.F.) ;
#332=ORIENTED_EDGE('',*,*,#271,.F.) ;
#353=ORIENTED_EDGE('',*,*,#346,.T.) ;
#354=ORIENTED_EDGE('',*,*,#303,.T.) ;
#355=ORIENTED_EDGE('',*,*,#252,.T.) ;
#356=ORIENTED_EDGE('',*,*,#192,.F.) ;
#357=ORIENTED_EDGE('',*,*,#151,.T.) ;
#358=ORIENTED_EDGE('',*,*,#351,.T.) ;
#367=ORIENTED_EDGE('',*,*,#177,.F.) ;
#368=ORIENTED_EDGE('',*,*,#266,.T.) ;
#369=ORIENTED_EDGE('',*,*,#365,.T.) ;
#370=ORIENTED_EDGE('',*,*,#75,.T.) ;
#379=ORIENTED_EDGE('',*,*,#365,.F.) ;
#380=ORIENTED_EDGE('',*,*,#327,.T.) ;
#381=ORIENTED_EDGE('',*,*,#377,.T.) ;
#382=ORIENTED_EDGE('',*,*,#85,.T.) ;
#396=ORIENTED_EDGE('',*,*,#346,.F.) ;
#397=ORIENTED_EDGE('',*,*,#394,.F.) ;
#398=ORIENTED_EDGE('',*,*,#92,.T.) ;
#399=ORIENTED_EDGE('',*,*,#377,.F.) ;
#400=ORIENTED_EDGE('',*,*,#322,.F.) ;
#401=ORIENTED_EDGE('',*,*,#292,.F.) ;
#410=ORIENTED_EDGE('',*,*,#394,.T.) ;
#411=ORIENTED_EDGE('',*,*,#351,.F.) ;
#412=ORIENTED_EDGE('',*,*,#146,.T.) ;
#413=ORIENTED_EDGE('',*,*,#99,.T.) ;
#51=CLOSED_SHELL('Closed Shell',(#113,#160,#184,#211,#228,#259,#278,#310,#334,#360,#372,#384,#403,#415)) ;
#71=VECTOR('Line Direction',#70,1.) ;
#88=VECTOR('Line Direction',#87,1.) ;
#95=VECTOR('Line Direction',#94,1.) ;
#102=VECTOR('Line Direction',#101,1.) ;
#142=VECTOR('Line Direction',#141,1.) ;
#149=VECTOR('Line Direction',#148,1.) ;
#168=VECTOR('Line Direction',#167,1.) ;
#202=VECTOR('Line Direction',#201,1.) ;
#245=VECTOR('Line Direction',#244,1.) ;
#250=VECTOR('Line Direction',#249,1.) ;
#262=VECTOR('Line Direction',#261,1.) ;
#295=VECTOR('Line Direction',#294,1.) ;
#325=VECTOR('Line Direction',#324,1.) ;
#342=VECTOR('Line Direction',#341,1.) ;
#349=VECTOR('Line Direction',#348,1.) ;
#392=VECTOR('Line Direction',#391,1.) ;
#417=ADVANCED_BREP_SHAPE_REPRESENTATION('NONE',(#416),#46) ;
#49=SHAPE_REPRESENTATION(' ',(#48),#46) ;
#113=ADVANCED_FACE('Corps principal',(#112),#56,.F.) ;
#160=ADVANCED_FACE('Corps principal',(#159),#118,.T.) ;
#184=ADVANCED_FACE('Corps principal',(#183),#165,.T.) ;
#211=ADVANCED_FACE('Corps principal',(#210),#165,.T.) ;
#228=ADVANCED_FACE('Corps principal',(#227),#216,.T.) ;
#259=ADVANCED_FACE('Corps principal',(#258),#233,.T.) ;
#278=ADVANCED_FACE('Corps principal',(#277),#233,.T.) ;
#310=ADVANCED_FACE('Corps principal',(#309),#283,.T.) ;
#334=ADVANCED_FACE('Corps principal',(#333),#315,.T.) ;
#360=ADVANCED_FACE('Corps principal',(#359),#339,.F.) ;
#372=ADVANCED_FACE('Corps principal',(#371),#233,.T.) ;
#384=ADVANCED_FACE('Corps principal',(#383),#283,.T.) ;
#403=ADVANCED_FACE('Corps principal',(#402),#389,.F.) ;
#415=ADVANCED_FACE('Corps principal',(#414),#408,.F.) ;
#4=APPLICATION_PROTOCOL_DEFINITION('international standard','config_control_design',1994,#1) ;
#32=APPROVAL_DATE_TIME(#13,#21) ;
#57=B_SPLINE_CURVE_WITH_KNOTS('',5,(#58,#59,#60,#61,#62,#63),.UNSPECIFIED.,.F.,.U.,(6,6),(0.,4.60299967394),.UNSPECIFIED.) ;
#76=B_SPLINE_CURVE_WITH_KNOTS('',5,(#77,#78,#79,#80,#81,#82),.UNSPECIFIED.,.F.,.U.,(6,6),(0.,4.60299967397),.UNSPECIFIED.) ;
#185=B_SPLINE_CURVE_WITH_KNOTS('',3,(#186,#187,#188,#189),.UNSPECIFIED.,.F.,.U.,(4,4),(0.,4.60299967384),.UNSPECIFIED.) ;
#298=B_SPLINE_CURVE_WITH_KNOTS('',3,(#299,#300,#301,#302),.UNSPECIFIED.,.F.,.U.,(4,4),(0.,4.60299967374),.UNSPECIFIED.) ;
#416=MANIFOLD_SOLID_BREP('Corps principal',#51) ;
#11=CALENDAR_DATE(2019,28,2) ;
#30=CC_DESIGN_APPROVAL(#21,(#16,#6,#14)) ;
#18=CC_DESIGN_DATE_AND_TIME_ASSIGNMENT(#13,#17,(#16)) ;
#29=CC_DESIGN_DATE_AND_TIME_ASSIGNMENT(#13,#28,(#14)) ;
#17=DATE_TIME_ROLE('classification_date') ;
#28=DATE_TIME_ROLE('creation_date') ;
#27=CC_DESIGN_PERSON_AND_ORGANIZATION_ASSIGNMENT(#25,#26,(#16)) ;
#33=CC_DESIGN_PERSON_AND_ORGANIZATION_ASSIGNMENT(#25,#34,(#6)) ;
#35=CC_DESIGN_PERSON_AND_ORGANIZATION_ASSIGNMENT(#25,#36,(#6,#14)) ;
#37=CC_DESIGN_PERSON_AND_ORGANIZATION_ASSIGNMENT(#25,#38,(#5)) ;
#26=PERSON_AND_ORGANIZATION_ROLE('classification_officer') ;
#34=PERSON_AND_ORGANIZATION_ROLE('design_supplier') ;
#36=PERSON_AND_ORGANIZATION_ROLE('creator') ;
#38=PERSON_AND_ORGANIZATION_ROLE('design_owner') ;
#39=CC_DESIGN_SECURITY_CLASSIFICATION(#16,(#6)) ;
#122=CIRCLE('generated circle',#121,7.5) ;
#131=CIRCLE('generated circle',#130,7.5) ;
#138=CIRCLE('generated circle',#137,7.5) ;
#176=CIRCLE('generated circle',#175,8.5) ;
#196=CIRCLE('generated circle',#195,8.5) ;
#220=CIRCLE('generated circle',#219,8.5) ;
#237=CIRCLE('generated circle',#236,8.5) ;
#270=CIRCLE('generated circle',#269,8.5) ;
#287=CIRCLE('generated circle',#286,7.5) ;
#319=CIRCLE('generated circle',#318,7.5) ;
#364=CIRCLE('generated circle',#363,8.5) ;
#376=CIRCLE('generated circle',#375,7.5) ;
#165=CONICAL_SURFACE('Cone',#164,0.,0.785398163397) ;
#216=CONICAL_SURFACE('Cone',#215,0.,0.785398163397) ;
#283=CONICAL_SURFACE('Cone',#282,0.,0.785398163397) ;
#315=CONICAL_SURFACE('Cone',#314,0.,0.785398163397) ;
#418=SHAPE_REPRESENTATION_RELATIONSHIP(' ',' ',#49,#417) ;
#233=CYLINDRICAL_SURFACE('generated cylinder',#232,8.5) ;
#3=DESIGN_CONTEXT(' ',#1,'design') ;
#68=EDGE_CURVE('',#65,#67,#57,.T.) ;
#75=EDGE_CURVE('',#74,#67,#72,.T.) ;
#85=EDGE_CURVE('',#84,#74,#76,.T.) ;
#92=EDGE_CURVE('',#91,#84,#89,.T.) ;
#99=EDGE_CURVE('',#98,#91,#96,.T.) ;
#104=EDGE_CURVE('',#98,#65,#103,.F.) ;
#127=EDGE_CURVE('',#124,#126,#122,.T.) ;
#134=EDGE_CURVE('',#126,#133,#131,.T.) ;
#139=EDGE_CURVE('',#133,#65,#138,.T.) ;
#146=EDGE_CURVE('',#145,#98,#143,.F.) ;
#151=EDGE_CURVE('',#124,#145,#150,.F.) ;
#172=EDGE_CURVE('',#133,#171,#169,.T.) ;
#177=EDGE_CURVE('',#171,#67,#176,.T.) ;
#192=EDGE_CURVE('',#124,#191,#185,.T.) ;
#199=EDGE_CURVE('',#191,#198,#196,.T.) ;
#204=EDGE_CURVE('',#126,#198,#203,.T.) ;
#221=EDGE_CURVE('',#198,#171,#220,.T.) ;
#242=EDGE_CURVE('',#239,#241,#237,.T.) ;
#247=EDGE_CURVE('',#198,#241,#246,.F.) ;
#252=EDGE_CURVE('',#239,#191,#251,.T.) ;
#266=EDGE_CURVE('',#171,#265,#263,.F.) ;
#271=EDGE_CURVE('',#241,#265,#270,.T.) ;
#292=EDGE_CURVE('',#289,#291,#287,.T.) ;
#297=EDGE_CURVE('',#241,#291,#296,.F.) ;
#303=EDGE_CURVE('',#289,#239,#298,.T.) ;
#322=EDGE_CURVE('',#291,#321,#319,.T.) ;
#327=EDGE_CURVE('',#265,#321,#326,.F.) ;
#346=EDGE_CURVE('',#345,#289,#343,.T.) ;
#351=EDGE_CURVE('',#145,#345,#350,.T.) ;
#365=EDGE_CURVE('',#265,#74,#364,.T.) ;
#377=EDGE_CURVE('',#321,#84,#376,.T.) ;
#394=EDGE_CURVE('',#91,#345,#393,.T.) ;
#105=EDGE_LOOP('',(#106,#107,#108,#109,#110,#111)) ;
#152=EDGE_LOOP('',(#153,#154,#155,#156,#157,#158)) ;
#178=EDGE_LOOP('',(#179,#180,#181,#182)) ;
#205=EDGE_LOOP('',(#206,#207,#208,#209)) ;
#222=EDGE_LOOP('',(#223,#224,#225,#226)) ;
#253=EDGE_LOOP('',(#254,#255,#256,#257)) ;
#272=EDGE_LOOP('',(#273,#274,#275,#276)) ;
#304=EDGE_LOOP('',(#305,#306,#307,#308)) ;
#328=EDGE_LOOP('',(#329,#330,#331,#332)) ;
#352=EDGE_LOOP('',(#353,#354,#355,#356,#357,#358)) ;
#366=EDGE_LOOP('',(#367,#368,#369,#370)) ;
#378=EDGE_LOOP('',(#379,#380,#381,#382)) ;
#395=EDGE_LOOP('',(#396,#397,#398,#399,#400,#401)) ;
#409=EDGE_LOOP('',(#410,#411,#412,#413)) ;
#112=FACE_OUTER_BOUND('',#105,.T.) ;
#159=FACE_OUTER_BOUND('',#152,.T.) ;
#183=FACE_OUTER_BOUND('',#178,.T.) ;
#210=FACE_OUTER_BOUND('',#205,.T.) ;
#227=FACE_OUTER_BOUND('',#222,.T.) ;
#258=FACE_OUTER_BOUND('',#253,.T.) ;
#277=FACE_OUTER_BOUND('',#272,.T.) ;
#309=FACE_OUTER_BOUND('',#304,.T.) ;
#333=FACE_OUTER_BOUND('',#328,.T.) ;
#359=FACE_OUTER_BOUND('',#352,.T.) ;
#371=FACE_OUTER_BOUND('',#366,.T.) ;
#383=FACE_OUTER_BOUND('',#378,.T.) ;
#402=FACE_OUTER_BOUND('',#395,.T.) ;
#414=FACE_OUTER_BOUND('',#409,.T.) ;
#45=UNCERTAINTY_MEASURE_WITH_UNIT(LENGTH_MEASURE(0.005),#41,'distance_accuracy_value','CONFUSED CURVE UNCERTAINTY') ;
#72=LINE('Line',#69,#71) ;
#89=LINE('Line',#86,#88) ;
#96=LINE('Line',#93,#95) ;
#103=LINE('Line',#100,#102) ;
#143=LINE('Line',#140,#142) ;
#150=LINE('Line',#147,#149) ;
#169=LINE('Line',#166,#168) ;
#203=LINE('Line',#200,#202) ;
#246=LINE('Line',#243,#245) ;
#251=LINE('Line',#248,#250) ;
#263=LINE('Line',#260,#262) ;
#296=LINE('Line',#293,#295) ;
#326=LINE('Line',#323,#325) ;
#343=LINE('Line',#340,#342) ;
#350=LINE('Line',#347,#349) ;
#393=LINE('Line',#390,#392) ;
#2=MECHANICAL_CONTEXT(' ',#1,'mechanical') ;
#24=PERSONAL_ADDRESS(' ',' ',' ',' ',' ',' ',' ',' ',' ',' ',' ',' ',(#22),' ') ;
#56=PLANE('Plane',#55) ;
#118=PLANE('Plane',#117) ;
#339=PLANE('Plane',#338) ;
#389=PLANE('Plane',#388) ;
#408=PLANE('Plane',#407) ;
#43=PLANE_ANGLE_MEASURE_WITH_UNIT(PLANE_ANGLE_MEASURE(0.0174532925199),#42) ;
#7=PRODUCT_CATEGORY('part',$) ;
#9=PRODUCT_CATEGORY_RELATIONSHIP(' ',' ',#7,#8) ;
#6=PRODUCT_DEFINITION_FORMATION_WITH_SPECIFIED_SOURCE('',' ',#5,.NOT_KNOWN.) ;
#8=PRODUCT_RELATED_PRODUCT_CATEGORY('detail',$,(#5)) ;
#50=SHAPE_DEFINITION_REPRESENTATION(#40,#49) ;
#65=VERTEX_POINT('',#64) ;
#67=VERTEX_POINT('',#66) ;
#74=VERTEX_POINT('',#73) ;
#84=VERTEX_POINT('',#83) ;
#91=VERTEX_POINT('',#90) ;
#98=VERTEX_POINT('',#97) ;
#124=VERTEX_POINT('',#123) ;
#126=VERTEX_POINT('',#125) ;
#133=VERTEX_POINT('',#132) ;
#145=VERTEX_POINT('',#144) ;
#171=VERTEX_POINT('',#170) ;
#191=VERTEX_POINT('',#190) ;
#198=VERTEX_POINT('',#197) ;
#239=VERTEX_POINT('',#238) ;
#241=VERTEX_POINT('',#240) ;
#265=VERTEX_POINT('',#264) ;
#289=VERTEX_POINT('',#288) ;
#291=VERTEX_POINT('',#290) ;
#321=VERTEX_POINT('',#320) ;
#345=VERTEX_POINT('',#344) ;
#41=(LENGTH_UNIT()NAMED_UNIT(*)SI_UNIT(.MILLI.,.METRE.)) ;
#42=(NAMED_UNIT(*)PLANE_ANGLE_UNIT()SI_UNIT($,.RADIAN.)) ;
#44=(NAMED_UNIT(*)SI_UNIT($,.STERADIAN.)SOLID_ANGLE_UNIT()) ;
#46=(GEOMETRIC_REPRESENTATION_CONTEXT(3)GLOBAL_UNCERTAINTY_ASSIGNED_CONTEXT((#45))GLOBAL_UNIT_ASSIGNED_CONTEXT((#41,#42,#44))REPRESENTATION_CONTEXT(' ',' ')) ;
ENDSEC;
END-ISO-10303-21;
