ISO-10303-21;
HEADER;
FILE_DESCRIPTION (( 'STEP AP203' ),
    '1' );
FILE_NAME ('adaptateur filtre air mikuni V2.STEP',
    '2019-12-22T18:39:38',
    ( '' ),
    ( '' ),
    'SwSTEP 2.0',
    'SolidWorks 2018',
    '' );
FILE_SCHEMA (( 'CONFIG_CONTROL_DESIGN' ));
ENDSEC;

DATA;
#1 = FACE_OUTER_BOUND ( 'NONE', #270, .T. ) ;
#2 = DIRECTION ( 'NONE',  ( -1.000000000000000000, -1.224646799147353207E-16, 0.0000000000000000000 ) ) ;
#3 = APPROVAL_STATUS ( 'not_yet_approved' ) ;
#4 = MECHANICAL_CONTEXT ( 'NONE', #104, 'mechanical' ) ;
#5 = EDGE_CURVE ( 'NONE', #157, #143, #351, .T. ) ;
#6 = EDGE_CURVE ( 'NONE', #215, #29, #160, .T. ) ;
#7 = ADVANCED_FACE ( 'NONE', ( #88 ), #239, .F. ) ;
#8 = CARTESIAN_POINT ( 'NONE',  ( 0.0000000000000000000, 0.0000000000000000000, 24.00000000000000000 ) ) ;
#9 = CARTESIAN_POINT ( 'NONE',  ( 0.0000000000000000000, 0.0000000000000000000, 0.0000000000000000000 ) ) ;
#10 = EDGE_CURVE ( 'NONE', #260, #248, #15, .T. ) ;
#11 = VERTEX_POINT ( 'NONE', #336 ) ;
#12 = APPROVAL_DATE_TIME ( #59, #216 ) ;
#13 = DIRECTION ( 'NONE',  ( -0.0000000000000000000, -0.0000000000000000000, -1.000000000000000000 ) ) ;
#14 = ORIENTED_EDGE ( 'NONE', *, *, #238, .F. ) ;
#15 = LINE ( 'NONE', #233, #212 ) ;
#16 = CARTESIAN_POINT ( 'NONE',  ( 0.0000000000000000000, 0.0000000000000000000, 19.39999999999999503 ) ) ;
#17 = CIRCLE ( 'NONE', #114, 26.10000000000000142 ) ;
#18 = APPROVAL ( #108, 'UNSPECIFIED' ) ;
#19 = ORIENTED_EDGE ( 'NONE', *, *, #331, .F. ) ;
#20 = CLOSED_SHELL ( 'NONE', ( #101, #23, #293, #273, #272, #170, #328, #247, #7, #349 ) ) ;
#21 = APPROVAL ( #140, 'UNSPECIFIED' ) ;
#22 = DIRECTION ( 'NONE',  ( 1.000000000000000000, 0.0000000000000000000, -0.0000000000000000000 ) ) ;
#23 = ADVANCED_FACE ( 'NONE', ( #292 ), #339, .F. ) ;
#24 = ORIENTED_EDGE ( 'NONE', *, *, #74, .T. ) ;
#25 = ORIENTED_EDGE ( 'NONE', *, *, #145, .T. ) ;
#26 = CARTESIAN_POINT ( 'NONE',  ( 0.0000000000000000000, 0.0000000000000000000, 4.000000000000000000 ) ) ;
#27 = LINE ( 'NONE', #306, #46 ) ;
#28 = DIRECTION ( 'NONE',  ( 1.000000000000000000, 0.0000000000000000000, 0.0000000000000000000 ) ) ;
#29 = VERTEX_POINT ( 'NONE', #36 ) ;
#30 = DIRECTION ( 'NONE',  ( -1.000000000000000000, 0.0000000000000000000, 0.0000000000000000000 ) ) ;
#31 = FACE_OUTER_BOUND ( 'NONE', #98, .T. ) ;
#32 = CARTESIAN_POINT ( 'NONE',  ( -26.10000000000000142, 0.0000000000000000000, 24.00000000000000000 ) ) ;
#33 = CARTESIAN_POINT ( 'NONE',  ( -21.49999999999999645, 0.0000000000000000000, 19.39999999999999858 ) ) ;
#34 = DIRECTION ( 'NONE',  ( 1.000000000000000000, 0.0000000000000000000, 0.0000000000000000000 ) ) ;
#35 = CC_DESIGN_SECURITY_CLASSIFICATION ( #118, ( #72 ) ) ;
#36 = CARTESIAN_POINT ( 'NONE',  ( -26.10000000000000142, 0.0000000000000000000, 4.000000000000000000 ) ) ;
#37 = CIRCLE ( 'NONE', #94, 26.10000000000000142 ) ;
#38 = CIRCLE ( 'NONE', #110, 33.00000000000000000 ) ;
#39 = LINE ( 'NONE', #81, #164 ) ;
#40 = AXIS2_PLACEMENT_3D ( 'NONE', #291, #346, #135 ) ;
#41 = CC_DESIGN_APPROVAL ( #18, ( #158 ) ) ;
#42 = DIRECTION ( 'NONE',  ( 1.000000000000000000, 0.0000000000000000000, 0.0000000000000000000 ) ) ;
#43 = AXIS2_PLACEMENT_3D ( 'NONE', #16, #241, #149 ) ;
#44 = EDGE_LOOP ( 'NONE', ( #244, #269, #211, #14 ) ) ;
#45 = CALENDAR_DATE ( 2019, 22, 12 ) ;
#46 = VECTOR ( 'NONE', #85, 1000.000000000000000 ) ;
#47 = AXIS2_PLACEMENT_3D ( 'NONE', #333, #202, #119 ) ;
#48 = EDGE_CURVE ( 'NONE', #73, #63, #218, .T. ) ;
#49 = DIRECTION ( 'NONE',  ( -1.000000000000000000, 0.0000000000000000000, 0.0000000000000000000 ) ) ;
#50 = LOCAL_TIME ( 19, 39, 38.00000000000000000, #152 ) ;
#51 = SECURITY_CLASSIFICATION_LEVEL ( 'unclassified' ) ;
#52 = DIRECTION ( 'NONE',  ( -1.000000000000000000, 0.0000000000000000000, 0.0000000000000000000 ) ) ;
#53 = DIRECTION ( 'NONE',  ( -1.224646799147353207E-16, 1.000000000000000000, 0.0000000000000000000 ) ) ;
#54 = DIRECTION ( 'NONE',  ( 0.0000000000000000000, 0.0000000000000000000, 1.000000000000000000 ) ) ;
#55 = DIRECTION ( 'NONE',  ( 0.0000000000000000000, 0.0000000000000000000, 1.000000000000000000 ) ) ;
#56 = DIRECTION ( 'NONE',  ( -1.000000000000000000, 0.0000000000000000000, 0.0000000000000000000 ) ) ;
#57 = CARTESIAN_POINT ( 'NONE',  ( 33.00000000000000000, 4.041334437186266200E-15, 4.000000000000000000 ) ) ;
#58 = ORIENTED_EDGE ( 'NONE', *, *, #177, .F. ) ;
#59 = DATE_AND_TIME ( #155, #330 ) ;
#60 = DIRECTION ( 'NONE',  ( 1.000000000000000000, 0.0000000000000000000, 0.0000000000000000000 ) ) ;
#61 = TOROIDAL_SURFACE ( 'NONE', #43, 26.10000000000000142, 4.600000000000006750 ) ;
#62 = DIRECTION ( 'NONE',  ( 1.000000000000000000, 0.0000000000000000000, 0.0000000000000000000 ) ) ;
#63 = VERTEX_POINT ( 'NONE', #33 ) ;
#64 = AXIS2_PLACEMENT_3D ( 'NONE', #279, #147, #111 ) ;
#65 = LOCAL_TIME ( 19, 39, 38.00000000000000000, #144 ) ;
#66 = AXIS2_PLACEMENT_3D ( 'NONE', #136, #323, #34 ) ;
#67 = ORIENTED_EDGE ( 'NONE', *, *, #181, .F. ) ;
#68 = EDGE_CURVE ( 'NONE', #260, #217, #109, .T. ) ;
#69 = PERSON_AND_ORGANIZATION ( #312, #341 ) ;
#70 = CIRCLE ( 'NONE', #127, 33.00000000000000000 ) ;
#71 = AXIS2_PLACEMENT_3D ( 'NONE', #271, #161, #49 ) ;
#72 = PRODUCT_DEFINITION_FORMATION_WITH_SPECIFIED_SOURCE ( 'ANY', '', #259, .NOT_KNOWN. ) ;
#73 = VERTEX_POINT ( 'NONE', #113 ) ;
#74 = EDGE_CURVE ( 'NONE', #217, #11, #154, .T. ) ;
#75 = DIRECTION ( 'NONE',  ( -0.0000000000000000000, -0.0000000000000000000, -1.000000000000000000 ) ) ;
#76 = FACE_BOUND ( 'NONE', #245, .T. ) ;
#77 = DATE_AND_TIME ( #281, #65 ) ;
#78 = PERSON_AND_ORGANIZATION_ROLE ( 'creator' ) ;
#79 = DIRECTION ( 'NONE',  ( -1.000000000000000000, 0.0000000000000000000, 0.0000000000000000000 ) ) ;
#80 = ORIENTED_EDGE ( 'NONE', *, *, #203, .T. ) ;
#81 = CARTESIAN_POINT ( 'NONE',  ( -21.50000000000000000, 0.0000000000000000000, 0.0000000000000000000 ) ) ;
#82 = VECTOR ( 'NONE', #153, 1000.000000000000000 ) ;
#83 = EDGE_CURVE ( 'NONE', #217, #260, #38, .T. ) ;
#84 = DIRECTION ( 'NONE',  ( -1.000000000000000000, 0.0000000000000000000, 0.0000000000000000000 ) ) ;
#85 = DIRECTION ( 'NONE',  ( -0.0000000000000000000, -0.0000000000000000000, -1.000000000000000000 ) ) ;
#86 = CARTESIAN_POINT ( 'NONE',  ( 0.0000000000000000000, 0.0000000000000000000, 4.000000000000000000 ) ) ;
#87 = EDGE_LOOP ( 'NONE', ( #296, #284, #80, #209 ) ) ;
#88 = FACE_OUTER_BOUND ( 'NONE', #107, .T. ) ;
#89 = AXIS2_PLACEMENT_3D ( 'NONE', #338, #183, #22 ) ;
#90 = EDGE_CURVE ( 'NONE', #63, #73, #302, .T. ) ;
#91 = UNCERTAINTY_MEASURE_WITH_UNIT (LENGTH_MEASURE( 1.000000000000000082E-05 ), #208, 'distance_accuracy_value', 'NONE');
#92 = CARTESIAN_POINT ( 'NONE',  ( -26.10000000000000142, 0.0000000000000000000, 24.00000000000000000 ) ) ;
#93 = CARTESIAN_POINT ( 'NONE',  ( 21.50000000000000000, 2.632990618166809235E-15, 0.0000000000000000000 ) ) ;
#94 = AXIS2_PLACEMENT_3D ( 'NONE', #334, #116, #30 ) ;
#95 =( GEOMETRIC_REPRESENTATION_CONTEXT ( 3 ) GLOBAL_UNCERTAINTY_ASSIGNED_CONTEXT ( ( #91 ) ) GLOBAL_UNIT_ASSIGNED_CONTEXT ( ( #208, #324, #332 ) ) REPRESENTATION_CONTEXT ( 'NONE', 'WORKASPACE' ) );
#96 = CC_DESIGN_APPROVAL ( #216, ( #72 ) ) ;
#97 = EDGE_LOOP ( 'NONE', ( #210, #343, #345, #58 ) ) ;
#98 = EDGE_LOOP ( 'NONE', ( #314, #242 ) ) ;
#99 = DIRECTION ( 'NONE',  ( -1.000000000000000000, 0.0000000000000000000, 0.0000000000000000000 ) ) ;
#100 = CIRCLE ( 'NONE', #163, 4.600000000000006750 ) ;
#101 = ADVANCED_FACE ( 'NONE', ( #322 ), #228, .T. ) ;
#102 = ORIENTED_EDGE ( 'NONE', *, *, #331, .T. ) ;
#103 = PERSON_AND_ORGANIZATION ( #312, #341 ) ;
#104 = APPLICATION_CONTEXT ( 'configuration controlled 3d designs of mechanical parts and assemblies' ) ;
#105 = AXIS2_PLACEMENT_3D ( 'NONE', #204, #13, #56 ) ;
#106 = CARTESIAN_POINT ( 'NONE',  ( 0.0000000000000000000, 0.0000000000000000000, 19.39999999999999858 ) ) ;
#107 = EDGE_LOOP ( 'NONE', ( #132, #189, #129, #102 ) ) ;
#108 = APPROVAL_STATUS ( 'not_yet_approved' ) ;
#109 = CIRCLE ( 'NONE', #159, 33.00000000000000000 ) ;
#110 = AXIS2_PLACEMENT_3D ( 'NONE', #134, #289, #348 ) ;
#111 = DIRECTION ( 'NONE',  ( -1.000000000000000000, 0.0000000000000000000, 0.0000000000000000000 ) ) ;
#112 = FACE_OUTER_BOUND ( 'NONE', #310, .T. ) ;
#113 = CARTESIAN_POINT ( 'NONE',  ( 21.49999999999999645, 2.632990618166808841E-15, 19.39999999999999858 ) ) ;
#114 = AXIS2_PLACEMENT_3D ( 'NONE', #150, #225, #205 ) ;
#115 = DIRECTION ( 'NONE',  ( 0.0000000000000000000, -1.000000000000000000, 0.0000000000000000000 ) ) ;
#116 = DIRECTION ( 'NONE',  ( -0.0000000000000000000, -0.0000000000000000000, -1.000000000000000000 ) ) ;
#117 = EDGE_LOOP ( 'NONE', ( #329, #191 ) ) ;
#118 = SECURITY_CLASSIFICATION ( '', '', #51 ) ;
#119 = DIRECTION ( 'NONE',  ( -1.000000000000000000, 0.0000000000000000000, 0.0000000000000000000 ) ) ;
#120 = CARTESIAN_POINT ( 'NONE',  ( 0.0000000000000000000, 0.0000000000000000000, 24.00000000000000000 ) ) ;
#121 = ADVANCED_BREP_SHAPE_REPRESENTATION ( 'adaptateur filtre air mikuni V2', ( #188, #288 ), #95 ) ;
#122 = EDGE_LOOP ( 'NONE', ( #254, #25, #315, #67 ) ) ;
#123 = DIRECTION ( 'NONE',  ( 0.0000000000000000000, 0.0000000000000000000, 1.000000000000000000 ) ) ;
#124 = CIRCLE ( 'NONE', #344, 4.600000000000006750 ) ;
#125 = COORDINATED_UNIVERSAL_TIME_OFFSET ( 1, 0, .AHEAD. ) ;
#126 = FACE_OUTER_BOUND ( 'NONE', #169, .T. ) ;
#127 = AXIS2_PLACEMENT_3D ( 'NONE', #227, #55, #62 ) ;
#128 = PLANE ( 'NONE',  #89 ) ;
#129 = ORIENTED_EDGE ( 'NONE', *, *, #238, .T. ) ;
#130 = COORDINATED_UNIVERSAL_TIME_OFFSET ( 1, 0, .AHEAD. ) ;
#131 = AXIS2_PLACEMENT_3D ( 'NONE', #318, #123, #42 ) ;
#132 = ORIENTED_EDGE ( 'NONE', *, *, #313, .F. ) ;
#133 = COORDINATED_UNIVERSAL_TIME_OFFSET ( 1, 0, .AHEAD. ) ;
#134 = CARTESIAN_POINT ( 'NONE',  ( 0.0000000000000000000, 0.0000000000000000000, 4.000000000000000000 ) ) ;
#135 = DIRECTION ( 'NONE',  ( -1.000000000000000000, 0.0000000000000000000, 0.0000000000000000000 ) ) ;
#136 = CARTESIAN_POINT ( 'NONE',  ( 0.0000000000000000000, 0.0000000000000000000, 4.000000000000000000 ) ) ;
#137 = ORIENTED_EDGE ( 'NONE', *, *, #303, .T. ) ;
#138 = CYLINDRICAL_SURFACE ( 'NONE', #342, 33.00000000000000000 ) ;
#139 = DIRECTION ( 'NONE',  ( -0.0000000000000000000, -0.0000000000000000000, -1.000000000000000000 ) ) ;
#140 = APPROVAL_STATUS ( 'not_yet_approved' ) ;
#141 = SHAPE_DEFINITION_REPRESENTATION ( #305, #121 ) ;
#142 = DATE_TIME_ROLE ( 'creation_date' ) ;
#143 = VERTEX_POINT ( 'NONE', #298 ) ;
#144 = COORDINATED_UNIVERSAL_TIME_OFFSET ( 1, 0, .AHEAD. ) ;
#145 = EDGE_CURVE ( 'NONE', #73, #185, #124, .T. ) ;
#146 = CARTESIAN_POINT ( 'NONE',  ( 21.50000000000000000, 2.632990618166809235E-15, 1.001148758302961256E-14 ) ) ;
#147 = DIRECTION ( 'NONE',  ( -0.0000000000000000000, -0.0000000000000000000, -1.000000000000000000 ) ) ;
#148 = CALENDAR_DATE ( 2019, 22, 12 ) ;
#149 = DIRECTION ( 'NONE',  ( -1.000000000000000000, 0.0000000000000000000, 0.0000000000000000000 ) ) ;
#150 = CARTESIAN_POINT ( 'NONE',  ( 0.0000000000000000000, 0.0000000000000000000, 4.000000000000000000 ) ) ;
#151 = PERSON_AND_ORGANIZATION ( #312, #341 ) ;
#152 = COORDINATED_UNIVERSAL_TIME_OFFSET ( 1, 0, .AHEAD. ) ;
#153 = DIRECTION ( 'NONE',  ( -0.0000000000000000000, -0.0000000000000000000, -1.000000000000000000 ) ) ;
#154 = LINE ( 'NONE', #207, #286 ) ;
#155 = CALENDAR_DATE ( 2019, 22, 12 ) ;
#156 = CIRCLE ( 'NONE', #173, 21.50000000000000000 ) ;
#157 = VERTEX_POINT ( 'NONE', #146 ) ;
#158 = PRODUCT_DEFINITION ( 'UNKNOWN', '', #72, #350 ) ;
#159 = AXIS2_PLACEMENT_3D ( 'NONE', #257, #231, #60 ) ;
#160 = CIRCLE ( 'NONE', #66, 26.10000000000000142 ) ;
#161 = DIRECTION ( 'NONE',  ( -0.0000000000000000000, -0.0000000000000000000, -1.000000000000000000 ) ) ;
#162 = ORIENTED_EDGE ( 'NONE', *, *, #68, .T. ) ;
#163 = AXIS2_PLACEMENT_3D ( 'NONE', #262, #115, #308 ) ;
#164 = VECTOR ( 'NONE', #304, 1000.000000000000000 ) ;
#165 = APPROVAL_ROLE ( '' ) ;
#166 = CARTESIAN_POINT ( 'NONE',  ( 0.0000000000000000000, 0.0000000000000000000, 1.001148758302961256E-14 ) ) ;
#167 = CARTESIAN_POINT ( 'NONE',  ( -33.00000000000000000, 0.0000000000000000000, 4.000000000000000000 ) ) ;
#168 = APPLICATION_PROTOCOL_DEFINITION ( 'international standard', 'config_control_design', 1994, #104 ) ;
#169 = EDGE_LOOP ( 'NONE', ( #337, #283, #235, #206 ) ) ;
#170 = ADVANCED_FACE ( 'NONE', ( #255, #112 ), #325, .T. ) ;
#171 = ORIENTED_EDGE ( 'NONE', *, *, #264, .T. ) ;
#172 = CARTESIAN_POINT ( 'NONE',  ( 26.10000000000000142, 3.196328145774592337E-15, 4.000000000000000000 ) ) ;
#173 = AXIS2_PLACEMENT_3D ( 'NONE', #319, #266, #243 ) ;
#174 = CYLINDRICAL_SURFACE ( 'NONE', #223, 26.10000000000000142 ) ;
#175 = DIRECTION ( 'NONE',  ( -0.0000000000000000000, -0.0000000000000000000, -1.000000000000000000 ) ) ;
#176 = CARTESIAN_POINT ( 'NONE',  ( 33.00000000000000000, 4.041334437186266200E-15, 0.0000000000000000000 ) ) ;
#177 = EDGE_CURVE ( 'NONE', #185, #321, #182, .T. ) ;
#178 = APPROVAL_DATE_TIME ( #237, #21 ) ;
#179 = ORIENTED_EDGE ( 'NONE', *, *, #83, .T. ) ;
#180 = ORIENTED_EDGE ( 'NONE', *, *, #277, .T. ) ;
#181 = EDGE_CURVE ( 'NONE', #63, #321, #100, .T. ) ;
#182 = CIRCLE ( 'NONE', #64, 26.10000000000000142 ) ;
#183 = DIRECTION ( 'NONE',  ( 0.0000000000000000000, 0.0000000000000000000, 1.000000000000000000 ) ) ;
#184 = DIRECTION ( 'NONE',  ( -0.0000000000000000000, -0.0000000000000000000, -1.000000000000000000 ) ) ;
#185 = VERTEX_POINT ( 'NONE', #301 ) ;
#186 = APPROVAL_PERSON_ORGANIZATION ( #103, #18, #196 ) ;
#187 = PRODUCT_RELATED_PRODUCT_CATEGORY ( 'detail', '', ( #259 ) ) ;
#188 = MANIFOLD_SOLID_BREP ( 'Enlèvement de matière-Révolution1', #20 ) ;
#189 = ORIENTED_EDGE ( 'NONE', *, *, #90, .F. ) ;
#190 = LOCAL_TIME ( 19, 39, 38.00000000000000000, #130 ) ;
#191 = ORIENTED_EDGE ( 'NONE', *, *, #6, .F. ) ;
#192 = PERSON_AND_ORGANIZATION ( #312, #341 ) ;
#193 = VECTOR ( 'NONE', #184, 1000.000000000000000 ) ;
#194 = CC_DESIGN_DATE_AND_TIME_ASSIGNMENT ( #267, #224, ( #118 ) ) ;
#195 = CARTESIAN_POINT ( 'NONE',  ( 26.10000000000000142, 3.196328145774592337E-15, 19.39999999999999503 ) ) ;
#196 = APPROVAL_ROLE ( '' ) ;
#197 = APPLICATION_CONTEXT ( 'configuration controlled 3d designs of mechanical parts and assemblies' ) ;
#198 = AXIS2_PLACEMENT_3D ( 'NONE', #26, #326, #252 ) ;
#199 = EDGE_CURVE ( 'NONE', #321, #185, #37, .T. ) ;
#200 = PERSON_AND_ORGANIZATION_ROLE ( 'design_owner' ) ;
#201 = DIRECTION ( 'NONE',  ( -1.000000000000000000, 0.0000000000000000000, 0.0000000000000000000 ) ) ;
#202 = DIRECTION ( 'NONE',  ( -0.0000000000000000000, -0.0000000000000000000, -1.000000000000000000 ) ) ;
#203 = EDGE_CURVE ( 'NONE', #248, #11, #70, .T. ) ;
#204 = CARTESIAN_POINT ( 'NONE',  ( 0.0000000000000000000, 0.0000000000000000000, 19.39999999999999858 ) ) ;
#205 = DIRECTION ( 'NONE',  ( 1.000000000000000000, 0.0000000000000000000, 0.0000000000000000000 ) ) ;
#206 = ORIENTED_EDGE ( 'NONE', *, *, #264, .F. ) ;
#207 = CARTESIAN_POINT ( 'NONE',  ( -33.00000000000000000, 0.0000000000000000000, 4.000000000000000000 ) ) ;
#208 =( LENGTH_UNIT ( ) NAMED_UNIT ( * ) SI_UNIT ( .MILLI., .METRE. ) );
#209 = ORIENTED_EDGE ( 'NONE', *, *, #74, .F. ) ;
#210 = ORIENTED_EDGE ( 'NONE', *, *, #145, .F. ) ;
#211 = ORIENTED_EDGE ( 'NONE', *, *, #5, .T. ) ;
#212 = VECTOR ( 'NONE', #307, 1000.000000000000000 ) ;
#213 = LOCAL_TIME ( 19, 39, 38.00000000000000000, #125 ) ;
#214 = CYLINDRICAL_SURFACE ( 'NONE', #232, 26.10000000000000142 ) ;
#215 = VERTEX_POINT ( 'NONE', #172 ) ;
#216 = APPROVAL ( #3, 'UNSPECIFIED' ) ;
#217 = VERTEX_POINT ( 'NONE', #167 ) ;
#218 = CIRCLE ( 'NONE', #105, 21.49999999999999645 ) ;
#219 = PERSON_AND_ORGANIZATION ( #312, #341 ) ;
#220 = ORIENTED_EDGE ( 'NONE', *, *, #5, .F. ) ;
#221 = CC_DESIGN_PERSON_AND_ORGANIZATION_ASSIGNMENT ( #287, #222, ( #72 ) ) ;
#222 = PERSON_AND_ORGANIZATION_ROLE ( 'creator' ) ;
#223 = AXIS2_PLACEMENT_3D ( 'NONE', #120, #282, #84 ) ;
#224 = DATE_TIME_ROLE ( 'classification_date' ) ;
#225 = DIRECTION ( 'NONE',  ( 0.0000000000000000000, 0.0000000000000000000, 1.000000000000000000 ) ) ;
#226 = PERSON_AND_ORGANIZATION_ROLE ( 'design_supplier' ) ;
#227 = CARTESIAN_POINT ( 'NONE',  ( 0.0000000000000000000, 0.0000000000000000000, 0.0000000000000000000 ) ) ;
#228 = TOROIDAL_SURFACE ( 'NONE', #71, 26.10000000000000142, 4.600000000000006750 ) ;
#229 = CC_DESIGN_PERSON_AND_ORGANIZATION_ASSIGNMENT ( #236, #78, ( #158 ) ) ;
#230 = FACE_OUTER_BOUND ( 'NONE', #97, .T. ) ;
#231 = DIRECTION ( 'NONE',  ( 0.0000000000000000000, 0.0000000000000000000, 1.000000000000000000 ) ) ;
#232 = AXIS2_PLACEMENT_3D ( 'NONE', #8, #311, #258 ) ;
#233 = CARTESIAN_POINT ( 'NONE',  ( 33.00000000000000000, 4.041334437186266200E-15, 4.000000000000000000 ) ) ;
#234 = CARTESIAN_POINT ( 'NONE',  ( 0.0000000000000000000, 0.0000000000000000000, 4.000000000000000000 ) ) ;
#235 = ORIENTED_EDGE ( 'NONE', *, *, #6, .T. ) ;
#236 = PERSON_AND_ORGANIZATION ( #312, #341 ) ;
#237 = DATE_AND_TIME ( #148, #190 ) ;
#238 = EDGE_CURVE ( 'NONE', #63, #143, #39, .T. ) ;
#239 = CYLINDRICAL_SURFACE ( 'NONE', #40, 21.50000000000000000 ) ;
#240 = LINE ( 'NONE', #32, #82 ) ;
#241 = DIRECTION ( 'NONE',  ( -0.0000000000000000000, -0.0000000000000000000, -1.000000000000000000 ) ) ;
#242 = ORIENTED_EDGE ( 'NONE', *, *, #203, .F. ) ;
#243 = DIRECTION ( 'NONE',  ( -1.000000000000000000, 0.0000000000000000000, 0.0000000000000000000 ) ) ;
#244 = ORIENTED_EDGE ( 'NONE', *, *, #48, .F. ) ;
#245 = EDGE_LOOP ( 'NONE', ( #19, #220 ) ) ;
#246 = LINE ( 'NONE', #93, #193 ) ;
#247 = ADVANCED_FACE ( 'NONE', ( #317 ), #214, .T. ) ;
#248 = VERTEX_POINT ( 'NONE', #176 ) ;
#249 = CC_DESIGN_PERSON_AND_ORGANIZATION_ASSIGNMENT ( #219, #250, ( #118 ) ) ;
#250 = PERSON_AND_ORGANIZATION_ROLE ( 'classification_officer' ) ;
#251 = DATE_AND_TIME ( #45, #213 ) ;
#252 = DIRECTION ( 'NONE',  ( 1.000000000000000000, 0.0000000000000000000, -0.0000000000000000000 ) ) ;
#253 = ORIENTED_EDGE ( 'NONE', *, *, #177, .T. ) ;
#254 = ORIENTED_EDGE ( 'NONE', *, *, #90, .T. ) ;
#255 = FACE_BOUND ( 'NONE', #117, .T. ) ;
#256 = DIRECTION ( 'NONE',  ( -0.0000000000000000000, -0.0000000000000000000, -1.000000000000000000 ) ) ;
#257 = CARTESIAN_POINT ( 'NONE',  ( 0.0000000000000000000, 0.0000000000000000000, 4.000000000000000000 ) ) ;
#258 = DIRECTION ( 'NONE',  ( -1.000000000000000000, 0.0000000000000000000, 0.0000000000000000000 ) ) ;
#259 = PRODUCT ( 'adaptateur filtre air mikuni V2', 'adaptateur filtre air mikuni V2', '', ( #4 ) ) ;
#260 = VERTEX_POINT ( 'NONE', #57 ) ;
#261 = PERSON_AND_ORGANIZATION ( #312, #341 ) ;
#262 = CARTESIAN_POINT ( 'NONE',  ( -26.10000000000000142, 0.0000000000000000000, 19.39999999999999503 ) ) ;
#263 = CYLINDRICAL_SURFACE ( 'NONE', #276, 33.00000000000000000 ) ;
#264 = EDGE_CURVE ( 'NONE', #321, #29, #240, .T. ) ;
#265 = ORIENTED_EDGE ( 'NONE', *, *, #10, .F. ) ;
#266 = DIRECTION ( 'NONE',  ( -0.0000000000000000000, -0.0000000000000000000, -1.000000000000000000 ) ) ;
#267 = DATE_AND_TIME ( #335, #50 ) ;
#268 = CC_DESIGN_PERSON_AND_ORGANIZATION_ASSIGNMENT ( #69, #226, ( #72 ) ) ;
#269 = ORIENTED_EDGE ( 'NONE', *, *, #313, .T. ) ;
#270 = EDGE_LOOP ( 'NONE', ( #265, #309, #24, #137 ) ) ;
#271 = CARTESIAN_POINT ( 'NONE',  ( 0.0000000000000000000, 0.0000000000000000000, 19.39999999999999503 ) ) ;
#272 = ADVANCED_FACE ( 'NONE', ( #1 ), #263, .T. ) ;
#273 = ADVANCED_FACE ( 'NONE', ( #320 ), #138, .T. ) ;
#274 = EDGE_LOOP ( 'NONE', ( #294, #253, #171, #180 ) ) ;
#275 = CIRCLE ( 'NONE', #131, 33.00000000000000000 ) ;
#276 = AXIS2_PLACEMENT_3D ( 'NONE', #234, #256, #79 ) ;
#277 = EDGE_CURVE ( 'NONE', #29, #215, #17, .T. ) ;
#278 = APPROVAL_PERSON_ORGANIZATION ( #192, #216, #165 ) ;
#279 = CARTESIAN_POINT ( 'NONE',  ( 0.0000000000000000000, 0.0000000000000000000, 24.00000000000000000 ) ) ;
#280 = CC_DESIGN_PERSON_AND_ORGANIZATION_ASSIGNMENT ( #261, #200, ( #259 ) ) ;
#281 = CALENDAR_DATE ( 2019, 22, 12 ) ;
#282 = DIRECTION ( 'NONE',  ( -0.0000000000000000000, -0.0000000000000000000, -1.000000000000000000 ) ) ;
#283 = ORIENTED_EDGE ( 'NONE', *, *, #299, .T. ) ;
#284 = ORIENTED_EDGE ( 'NONE', *, *, #10, .T. ) ;
#285 = CC_DESIGN_DATE_AND_TIME_ASSIGNMENT ( #77, #142, ( #158 ) ) ;
#286 = VECTOR ( 'NONE', #340, 1000.000000000000000 ) ;
#287 = PERSON_AND_ORGANIZATION ( #312, #341 ) ;
#288 = AXIS2_PLACEMENT_3D ( 'NONE', #9, #54, #28 ) ;
#289 = DIRECTION ( 'NONE',  ( 0.0000000000000000000, 0.0000000000000000000, 1.000000000000000000 ) ) ;
#290 = APPROVAL_PERSON_ORGANIZATION ( #151, #21, #327 ) ;
#291 = CARTESIAN_POINT ( 'NONE',  ( 0.0000000000000000000, 0.0000000000000000000, 0.0000000000000000000 ) ) ;
#292 = FACE_OUTER_BOUND ( 'NONE', #44, .T. ) ;
#293 = ADVANCED_FACE ( 'NONE', ( #126 ), #174, .T. ) ;
#294 = ORIENTED_EDGE ( 'NONE', *, *, #299, .F. ) ;
#295 = APPLICATION_PROTOCOL_DEFINITION ( 'international standard', 'config_control_design', 1994, #197 ) ;
#296 = ORIENTED_EDGE ( 'NONE', *, *, #68, .F. ) ;
#297 = APPROVAL_DATE_TIME ( #251, #18 ) ;
#298 = CARTESIAN_POINT ( 'NONE',  ( -21.50000000000000000, 0.0000000000000000000, 1.001148758302961256E-14 ) ) ;
#299 = EDGE_CURVE ( 'NONE', #185, #215, #27, .T. ) ;
#300 = CC_DESIGN_APPROVAL ( #21, ( #118 ) ) ;
#301 = CARTESIAN_POINT ( 'NONE',  ( 26.10000000000000142, 3.196328145774592337E-15, 24.00000000000000000 ) ) ;
#302 = CIRCLE ( 'NONE', #316, 21.49999999999999645 ) ;
#303 = EDGE_CURVE ( 'NONE', #11, #248, #275, .T. ) ;
#304 = DIRECTION ( 'NONE',  ( -0.0000000000000000000, -0.0000000000000000000, -1.000000000000000000 ) ) ;
#305 = PRODUCT_DEFINITION_SHAPE ( 'NONE', 'NONE',  #158 ) ;
#306 = CARTESIAN_POINT ( 'NONE',  ( 26.10000000000000142, 3.196328145774592337E-15, 24.00000000000000000 ) ) ;
#307 = DIRECTION ( 'NONE',  ( -0.0000000000000000000, -0.0000000000000000000, -1.000000000000000000 ) ) ;
#308 = DIRECTION ( 'NONE',  ( 0.0000000000000000000, 0.0000000000000000000, -1.000000000000000000 ) ) ;
#309 = ORIENTED_EDGE ( 'NONE', *, *, #83, .F. ) ;
#310 = EDGE_LOOP ( 'NONE', ( #179, #162 ) ) ;
#311 = DIRECTION ( 'NONE',  ( -0.0000000000000000000, -0.0000000000000000000, -1.000000000000000000 ) ) ;
#312 = PERSON ( 'UNSPECIFIED', 'UNSPECIFIED', 'UNSPECIFIED', ('UNSPECIFIED'), ('UNSPECIFIED'), ('UNSPECIFIED') ) ;
#313 = EDGE_CURVE ( 'NONE', #73, #157, #246, .T. ) ;
#314 = ORIENTED_EDGE ( 'NONE', *, *, #303, .F. ) ;
#315 = ORIENTED_EDGE ( 'NONE', *, *, #199, .F. ) ;
#316 = AXIS2_PLACEMENT_3D ( 'NONE', #106, #139, #52 ) ;
#317 = FACE_OUTER_BOUND ( 'NONE', #274, .T. ) ;
#318 = CARTESIAN_POINT ( 'NONE',  ( 0.0000000000000000000, 0.0000000000000000000, 0.0000000000000000000 ) ) ;
#319 = CARTESIAN_POINT ( 'NONE',  ( 0.0000000000000000000, 0.0000000000000000000, 1.001148758302961256E-14 ) ) ;
#320 = FACE_OUTER_BOUND ( 'NONE', #87, .T. ) ;
#321 = VERTEX_POINT ( 'NONE', #92 ) ;
#322 = FACE_OUTER_BOUND ( 'NONE', #122, .T. ) ;
#323 = DIRECTION ( 'NONE',  ( 0.0000000000000000000, 0.0000000000000000000, 1.000000000000000000 ) ) ;
#324 =( NAMED_UNIT ( * ) PLANE_ANGLE_UNIT ( ) SI_UNIT ( $, .RADIAN. ) );
#325 = PLANE ( 'NONE',  #198 ) ;
#326 = DIRECTION ( 'NONE',  ( 0.0000000000000000000, 0.0000000000000000000, 1.000000000000000000 ) ) ;
#327 = APPROVAL_ROLE ( '' ) ;
#328 = ADVANCED_FACE ( 'NONE', ( #76, #31 ), #128, .F. ) ;
#329 = ORIENTED_EDGE ( 'NONE', *, *, #277, .F. ) ;
#330 = LOCAL_TIME ( 19, 39, 38.00000000000000000, #133 ) ;
#331 = EDGE_CURVE ( 'NONE', #143, #157, #156, .T. ) ;
#332 =( NAMED_UNIT ( * ) SI_UNIT ( $, .STERADIAN. ) SOLID_ANGLE_UNIT ( ) );
#333 = CARTESIAN_POINT ( 'NONE',  ( 0.0000000000000000000, 0.0000000000000000000, 0.0000000000000000000 ) ) ;
#334 = CARTESIAN_POINT ( 'NONE',  ( 0.0000000000000000000, 0.0000000000000000000, 24.00000000000000000 ) ) ;
#335 = CALENDAR_DATE ( 2019, 22, 12 ) ;
#336 = CARTESIAN_POINT ( 'NONE',  ( -33.00000000000000000, 0.0000000000000000000, 0.0000000000000000000 ) ) ;
#337 = ORIENTED_EDGE ( 'NONE', *, *, #199, .T. ) ;
#338 = CARTESIAN_POINT ( 'NONE',  ( 0.0000000000000000000, 0.0000000000000000000, 0.0000000000000000000 ) ) ;
#339 = CYLINDRICAL_SURFACE ( 'NONE', #47, 21.50000000000000000 ) ;
#340 = DIRECTION ( 'NONE',  ( -0.0000000000000000000, -0.0000000000000000000, -1.000000000000000000 ) ) ;
#341 = ORGANIZATION ( 'UNSPECIFIED', 'UNSPECIFIED', '' ) ;
#342 = AXIS2_PLACEMENT_3D ( 'NONE', #86, #175, #201 ) ;
#343 = ORIENTED_EDGE ( 'NONE', *, *, #48, .T. ) ;
#344 = AXIS2_PLACEMENT_3D ( 'NONE', #195, #53, #2 ) ;
#345 = ORIENTED_EDGE ( 'NONE', *, *, #181, .T. ) ;
#346 = DIRECTION ( 'NONE',  ( -0.0000000000000000000, -0.0000000000000000000, -1.000000000000000000 ) ) ;
#347 = AXIS2_PLACEMENT_3D ( 'NONE', #166, #75, #99 ) ;
#348 = DIRECTION ( 'NONE',  ( 1.000000000000000000, 0.0000000000000000000, 0.0000000000000000000 ) ) ;
#349 = ADVANCED_FACE ( 'NONE', ( #230 ), #61, .T. ) ;
#350 = DESIGN_CONTEXT ( 'detailed design', #197, 'design' ) ;
#351 = CIRCLE ( 'NONE', #347, 21.50000000000000000 ) ;
ENDSEC;
END-ISO-10303-21;
