ISO-10303-21;
HEADER;
FILE_DESCRIPTION(('FreeCAD Model'),'2;1');
FILE_NAME(
'C:/Users/Utilisateur/Documents/PAPA(22JUIN2019)/APLINOV d''enhaut 
(8Février2019)/NUEVO LIFTSOL a la date6 NOVEMBRE 2019/EMBRAYAGES APRES 
15 OCTOBRE/PIGES LIAISON MONO-POULIE/CHAMFER PIGE.step',
  '2019-12-04T12:29:26',('Author'),(''),
  'Open CASCADE STEP processor 7.2','FreeCAD','Unknown');
FILE_SCHEMA(('AUTOMOTIVE_DESIGN { 1 0 10303 214 1 1 1 1 }'));
ENDSEC;
DATA;
#1 = APPLICATION_PROTOCOL_DEFINITION('international standard',
  'automotive_design',2000,#2);
#2 = APPLICATION_CONTEXT(
  'core data for automotive mechanical design processes');
#3 = SHAPE_DEFINITION_REPRESENTATION(#4,#10);
#4 = PRODUCT_DEFINITION_SHAPE('','',#5);
#5 = PRODUCT_DEFINITION('design','',#6,#9);
#6 = PRODUCT_DEFINITION_FORMATION('','',#7);
#7 = PRODUCT('ChamferPIGE_LIAISON_MONO_POULIE',
  'ChamferPIGE_LIAISON_MONO_POULIE','',(#8));
#8 = PRODUCT_CONTEXT('',#2,'mechanical');
#9 = PRODUCT_DEFINITION_CONTEXT('part definition',#2,'design');
#10 = ADVANCED_BREP_SHAPE_REPRESENTATION('',(#11,#15),#490);
#11 = AXIS2_PLACEMENT_3D('',#12,#13,#14);
#12 = CARTESIAN_POINT('',(0.E+000,0.E+000,0.E+000));
#13 = DIRECTION('',(0.E+000,0.E+000,1.));
#14 = DIRECTION('',(1.,0.E+000,-0.E+000));
#15 = MANIFOLD_SOLID_BREP('',#16);
#16 = CLOSED_SHELL('',(#17,#209,#262,#320,#423,#429,#433,#483));
#17 = ADVANCED_FACE('',(#18),#32,.T.);
#18 = FACE_BOUND('',#19,.F.);
#19 = EDGE_LOOP('',(#20,#50,#79,#105,#138,#159,#181,#182));
#20 = ORIENTED_EDGE('',*,*,#21,.F.);
#21 = EDGE_CURVE('',#22,#24,#26,.T.);
#22 = VERTEX_POINT('',#23);
#23 = CARTESIAN_POINT('',(7.200328492333E-002,2.,0.E+000));
#24 = VERTEX_POINT('',#25);
#25 = CARTESIAN_POINT('',(-35.76799671507,2.,0.E+000));
#26 = SEAM_CURVE('',#27,(#31,#43),.PCURVE_S1.);
#27 = LINE('',#28,#29);
#28 = CARTESIAN_POINT('',(7.200328492333E-002,2.,0.E+000));
#29 = VECTOR('',#30,1.);
#30 = DIRECTION('',(-1.,0.E+000,0.E+000));
#31 = PCURVE('',#32,#37);
#32 = CYLINDRICAL_SURFACE('',#33,2.);
#33 = AXIS2_PLACEMENT_3D('',#34,#35,#36);
#34 = CARTESIAN_POINT('',(7.200328492333E-002,0.E+000,0.E+000));
#35 = DIRECTION('',(-1.,-0.E+000,-0.E+000));
#36 = DIRECTION('',(0.E+000,1.,0.E+000));
#37 = DEFINITIONAL_REPRESENTATION('',(#38),#42);
#38 = LINE('',#39,#40);
#39 = CARTESIAN_POINT('',(-0.E+000,0.E+000));
#40 = VECTOR('',#41,1.);
#41 = DIRECTION('',(-0.E+000,1.));
#42 = ( GEOMETRIC_REPRESENTATION_CONTEXT(2) 
PARAMETRIC_REPRESENTATION_CONTEXT() REPRESENTATION_CONTEXT('2D SPACE',''
  ) );
#43 = PCURVE('',#32,#44);
#44 = DEFINITIONAL_REPRESENTATION('',(#45),#49);
#45 = LINE('',#46,#47);
#46 = CARTESIAN_POINT('',(-6.28318530718,0.E+000));
#47 = VECTOR('',#48,1.);
#48 = DIRECTION('',(-0.E+000,1.));
#49 = ( GEOMETRIC_REPRESENTATION_CONTEXT(2) 
PARAMETRIC_REPRESENTATION_CONTEXT() REPRESENTATION_CONTEXT('2D SPACE',''
  ) );
#50 = ORIENTED_EDGE('',*,*,#51,.T.);
#51 = EDGE_CURVE('',#22,#52,#54,.T.);
#52 = VERTEX_POINT('',#53);
#53 = CARTESIAN_POINT('',(7.200328492333E-002,1.022691760747,1.71875));
#54 = SURFACE_CURVE('',#55,(#60,#67),.PCURVE_S1.);
#55 = CIRCLE('',#56,2.);
#56 = AXIS2_PLACEMENT_3D('',#57,#58,#59);
#57 = CARTESIAN_POINT('',(7.200328492333E-002,0.E+000,0.E+000));
#58 = DIRECTION('',(1.,0.E+000,0.E+000));
#59 = DIRECTION('',(0.E+000,1.,0.E+000));
#60 = PCURVE('',#32,#61);
#61 = DEFINITIONAL_REPRESENTATION('',(#62),#66);
#62 = LINE('',#63,#64);
#63 = CARTESIAN_POINT('',(-0.E+000,0.E+000));
#64 = VECTOR('',#65,1.);
#65 = DIRECTION('',(-1.,0.E+000));
#66 = ( GEOMETRIC_REPRESENTATION_CONTEXT(2) 
PARAMETRIC_REPRESENTATION_CONTEXT() REPRESENTATION_CONTEXT('2D SPACE',''
  ) );
#67 = PCURVE('',#68,#73);
#68 = PLANE('',#69);
#69 = AXIS2_PLACEMENT_3D('',#70,#71,#72);
#70 = CARTESIAN_POINT('',(7.200328492333E-002,0.E+000,0.E+000));
#71 = DIRECTION('',(1.,0.E+000,0.E+000));
#72 = DIRECTION('',(0.E+000,1.,0.E+000));
#73 = DEFINITIONAL_REPRESENTATION('',(#74),#78);
#74 = CIRCLE('',#75,2.);
#75 = AXIS2_PLACEMENT_2D('',#76,#77);
#76 = CARTESIAN_POINT('',(0.E+000,0.E+000));
#77 = DIRECTION('',(1.,0.E+000));
#78 = ( GEOMETRIC_REPRESENTATION_CONTEXT(2) 
PARAMETRIC_REPRESENTATION_CONTEXT() REPRESENTATION_CONTEXT('2D SPACE',''
  ) );
#79 = ORIENTED_EDGE('',*,*,#80,.T.);
#80 = EDGE_CURVE('',#52,#81,#83,.T.);
#81 = VERTEX_POINT('',#82);
#82 = CARTESIAN_POINT('',(-3.,1.022691760747,1.71875));
#83 = SURFACE_CURVE('',#84,(#88,#94),.PCURVE_S1.);
#84 = LINE('',#85,#86);
#85 = CARTESIAN_POINT('',(7.200328492333E-002,1.022691760746,1.71875));
#86 = VECTOR('',#87,1.);
#87 = DIRECTION('',(-1.,-0.E+000,-0.E+000));
#88 = PCURVE('',#32,#89);
#89 = DEFINITIONAL_REPRESENTATION('',(#90),#93);
#90 = B_SPLINE_CURVE_WITH_KNOTS('',1,(#91,#92),.UNSPECIFIED.,.F.,.F.,(2,
    2),(-6.E-007,3.072003884923),.PIECEWISE_BEZIER_KNOTS.);
#91 = CARTESIAN_POINT('',(-1.034046149567,-6.E-007));
#92 = CARTESIAN_POINT('',(-1.034046149567,3.072003884923));
#93 = ( GEOMETRIC_REPRESENTATION_CONTEXT(2) 
PARAMETRIC_REPRESENTATION_CONTEXT() REPRESENTATION_CONTEXT('2D SPACE',''
  ) );
#94 = PCURVE('',#95,#100);
#95 = CYLINDRICAL_SURFACE('',#96,1.25);
#96 = AXIS2_PLACEMENT_3D('',#97,#98,#99);
#97 = CARTESIAN_POINT('',(17.,-1.80655E-012,1.000000000002));
#98 = DIRECTION('',(1.,-1.128E-013,1.1291E-013));
#99 = DIRECTION('',(1.128E-013,1.,-1.1291E-013));
#100 = DEFINITIONAL_REPRESENTATION('',(#101),#104);
#101 = B_SPLINE_CURVE_WITH_KNOTS('',1,(#102,#103),.UNSPECIFIED.,.F.,.F.,
  (2,2),(-6.E-007,3.072003884923),.PIECEWISE_BEZIER_KNOTS.);
#102 = CARTESIAN_POINT('',(0.612604148049,-16.92799611507));
#103 = CARTESIAN_POINT('',(0.612604148049,-20.0000006));
#104 = ( GEOMETRIC_REPRESENTATION_CONTEXT(2) 
PARAMETRIC_REPRESENTATION_CONTEXT() REPRESENTATION_CONTEXT('2D SPACE',''
  ) );
#105 = ORIENTED_EDGE('',*,*,#106,.F.);
#106 = EDGE_CURVE('',#107,#81,#109,.T.);
#107 = VERTEX_POINT('',#108);
#108 = CARTESIAN_POINT('',(-3.,-1.022691760746,1.71875));
#109 = SURFACE_CURVE('',#110,(#115,#122),.PCURVE_S1.);
#110 = CIRCLE('',#111,2.);
#111 = AXIS2_PLACEMENT_3D('',#112,#113,#114);
#112 = CARTESIAN_POINT('',(-3.,0.E+000,0.E+000));
#113 = DIRECTION('',(-1.,0.E+000,0.E+000));
#114 = DIRECTION('',(0.E+000,1.,0.E+000));
#115 = PCURVE('',#32,#116);
#116 = DEFINITIONAL_REPRESENTATION('',(#117),#121);
#117 = LINE('',#118,#119);
#118 = CARTESIAN_POINT('',(-6.28318530718,3.072003284923));
#119 = VECTOR('',#120,1.);
#120 = DIRECTION('',(1.,-0.E+000));
#121 = ( GEOMETRIC_REPRESENTATION_CONTEXT(2) 
PARAMETRIC_REPRESENTATION_CONTEXT() REPRESENTATION_CONTEXT('2D SPACE',''
  ) );
#122 = PCURVE('',#123,#128);
#123 = PLANE('',#124);
#124 = AXIS2_PLACEMENT_3D('',#125,#126,#127);
#125 = CARTESIAN_POINT('',(-3.,4.515E-013,1.));
#126 = DIRECTION('',(1.,-1.1298E-013,1.1281E-013));
#127 = DIRECTION('',(1.1298E-013,1.,0.E+000));
#128 = DEFINITIONAL_REPRESENTATION('',(#129),#137);
#129 = ( BOUNDED_CURVE() B_SPLINE_CURVE(2,(#130,#131,#132,#133,#134,#135
,#136),.UNSPECIFIED.,.T.,.F.) B_SPLINE_CURVE_WITH_KNOTS((1,2,2,2,2,1),(
    -2.094395102393,0.E+000,2.094395102393,4.188790204786,6.28318530718,
8.377580409573),.UNSPECIFIED.) CURVE() GEOMETRIC_REPRESENTATION_ITEM() 
RATIONAL_B_SPLINE_CURVE((1.,0.5,1.,0.5,1.,0.5,1.)) REPRESENTATION_ITEM(
  '') );
#130 = CARTESIAN_POINT('',(2.,-1.));
#131 = CARTESIAN_POINT('',(2.,-4.464101615137));
#132 = CARTESIAN_POINT('',(-1.,-2.732050807569));
#133 = CARTESIAN_POINT('',(-4.,-1.));
#134 = CARTESIAN_POINT('',(-1.,0.732050807569));
#135 = CARTESIAN_POINT('',(2.,2.464101615138));
#136 = CARTESIAN_POINT('',(2.,-1.));
#137 = ( GEOMETRIC_REPRESENTATION_CONTEXT(2) 
PARAMETRIC_REPRESENTATION_CONTEXT() REPRESENTATION_CONTEXT('2D SPACE',''
  ) );
#138 = ORIENTED_EDGE('',*,*,#139,.F.);
#139 = EDGE_CURVE('',#140,#107,#142,.T.);
#140 = VERTEX_POINT('',#141);
#141 = CARTESIAN_POINT('',(7.200328492333E-002,-1.022691760747,1.71875)
  );
#142 = SURFACE_CURVE('',#143,(#147,#153),.PCURVE_S1.);
#143 = LINE('',#144,#145);
#144 = CARTESIAN_POINT('',(7.200328492333E-002,-1.022691760753,
    1.718749999997));
#145 = VECTOR('',#146,1.);
#146 = DIRECTION('',(-1.,-0.E+000,-0.E+000));
#147 = PCURVE('',#32,#148);
#148 = DEFINITIONAL_REPRESENTATION('',(#149),#152);
#149 = B_SPLINE_CURVE_WITH_KNOTS('',1,(#150,#151),.UNSPECIFIED.,.F.,.F.,
  (2,2),(-6.E-007,3.072003884924),.PIECEWISE_BEZIER_KNOTS.);
#150 = CARTESIAN_POINT('',(-2.107546504027,-6.E-007));
#151 = CARTESIAN_POINT('',(-2.107546504027,3.072003884924));
#152 = ( GEOMETRIC_REPRESENTATION_CONTEXT(2) 
PARAMETRIC_REPRESENTATION_CONTEXT() REPRESENTATION_CONTEXT('2D SPACE',''
  ) );
#153 = PCURVE('',#95,#154);
#154 = DEFINITIONAL_REPRESENTATION('',(#155),#158);
#155 = B_SPLINE_CURVE_WITH_KNOTS('',1,(#156,#157),.UNSPECIFIED.,.F.,.F.,
  (2,2),(-6.E-007,3.072003884924),.PIECEWISE_BEZIER_KNOTS.);
#156 = CARTESIAN_POINT('',(2.528988505546,-16.92799611507));
#157 = CARTESIAN_POINT('',(2.528988505546,-20.0000006));
#158 = ( GEOMETRIC_REPRESENTATION_CONTEXT(2) 
PARAMETRIC_REPRESENTATION_CONTEXT() REPRESENTATION_CONTEXT('2D SPACE',''
  ) );
#159 = ORIENTED_EDGE('',*,*,#160,.T.);
#160 = EDGE_CURVE('',#140,#22,#161,.T.);
#161 = SURFACE_CURVE('',#162,(#167,#174),.PCURVE_S1.);
#162 = CIRCLE('',#163,2.);
#163 = AXIS2_PLACEMENT_3D('',#164,#165,#166);
#164 = CARTESIAN_POINT('',(7.200328492333E-002,0.E+000,0.E+000));
#165 = DIRECTION('',(1.,0.E+000,0.E+000));
#166 = DIRECTION('',(0.E+000,1.,0.E+000));
#167 = PCURVE('',#32,#168);
#168 = DEFINITIONAL_REPRESENTATION('',(#169),#173);
#169 = LINE('',#170,#171);
#170 = CARTESIAN_POINT('',(-0.E+000,0.E+000));
#171 = VECTOR('',#172,1.);
#172 = DIRECTION('',(-1.,0.E+000));
#173 = ( GEOMETRIC_REPRESENTATION_CONTEXT(2) 
PARAMETRIC_REPRESENTATION_CONTEXT() REPRESENTATION_CONTEXT('2D SPACE',''
  ) );
#174 = PCURVE('',#68,#175);
#175 = DEFINITIONAL_REPRESENTATION('',(#176),#180);
#176 = CIRCLE('',#177,2.);
#177 = AXIS2_PLACEMENT_2D('',#178,#179);
#178 = CARTESIAN_POINT('',(0.E+000,0.E+000));
#179 = DIRECTION('',(1.,0.E+000));
#180 = ( GEOMETRIC_REPRESENTATION_CONTEXT(2) 
PARAMETRIC_REPRESENTATION_CONTEXT() REPRESENTATION_CONTEXT('2D SPACE',''
  ) );
#181 = ORIENTED_EDGE('',*,*,#21,.T.);
#182 = ORIENTED_EDGE('',*,*,#183,.F.);
#183 = EDGE_CURVE('',#24,#24,#184,.T.);
#184 = SURFACE_CURVE('',#185,(#190,#197),.PCURVE_S1.);
#185 = CIRCLE('',#186,2.);
#186 = AXIS2_PLACEMENT_3D('',#187,#188,#189);
#187 = CARTESIAN_POINT('',(-35.76799671507,0.E+000,0.E+000));
#188 = DIRECTION('',(1.,0.E+000,0.E+000));
#189 = DIRECTION('',(0.E+000,1.,0.E+000));
#190 = PCURVE('',#32,#191);
#191 = DEFINITIONAL_REPRESENTATION('',(#192),#196);
#192 = LINE('',#193,#194);
#193 = CARTESIAN_POINT('',(-0.E+000,35.84));
#194 = VECTOR('',#195,1.);
#195 = DIRECTION('',(-1.,0.E+000));
#196 = ( GEOMETRIC_REPRESENTATION_CONTEXT(2) 
PARAMETRIC_REPRESENTATION_CONTEXT() REPRESENTATION_CONTEXT('2D SPACE',''
  ) );
#197 = PCURVE('',#198,#203);
#198 = CONICAL_SURFACE('',#199,2.,0.785398163397);
#199 = AXIS2_PLACEMENT_3D('',#200,#201,#202);
#200 = CARTESIAN_POINT('',(-35.76799671507,0.E+000,0.E+000));
#201 = DIRECTION('',(1.,0.E+000,0.E+000));
#202 = DIRECTION('',(0.E+000,1.,0.E+000));
#203 = DEFINITIONAL_REPRESENTATION('',(#204),#208);
#204 = LINE('',#205,#206);
#205 = CARTESIAN_POINT('',(0.E+000,-0.E+000));
#206 = VECTOR('',#207,1.);
#207 = DIRECTION('',(1.,-0.E+000));
#208 = ( GEOMETRIC_REPRESENTATION_CONTEXT(2) 
PARAMETRIC_REPRESENTATION_CONTEXT() REPRESENTATION_CONTEXT('2D SPACE',''
  ) );
#209 = ADVANCED_FACE('',(#210),#198,.T.);
#210 = FACE_BOUND('',#211,.F.);
#211 = EDGE_LOOP('',(#212,#233,#234,#235));
#212 = ORIENTED_EDGE('',*,*,#213,.F.);
#213 = EDGE_CURVE('',#24,#214,#216,.T.);
#214 = VERTEX_POINT('',#215);
#215 = CARTESIAN_POINT('',(-36.26799671507,1.5,0.E+000));
#216 = SEAM_CURVE('',#217,(#221,#227),.PCURVE_S1.);
#217 = LINE('',#218,#219);
#218 = CARTESIAN_POINT('',(-35.76799671507,2.,0.E+000));
#219 = VECTOR('',#220,1.);
#220 = DIRECTION('',(-0.707106781187,-0.707106781187,-0.E+000));
#221 = PCURVE('',#198,#222);
#222 = DEFINITIONAL_REPRESENTATION('',(#223),#226);
#223 = B_SPLINE_CURVE_WITH_KNOTS('',1,(#224,#225),.UNSPECIFIED.,.F.,.F.,
  (2,2),(0.E+000,0.707106781187),.PIECEWISE_BEZIER_KNOTS.);
#224 = CARTESIAN_POINT('',(0.E+000,0.E+000));
#225 = CARTESIAN_POINT('',(0.E+000,-0.5));
#226 = ( GEOMETRIC_REPRESENTATION_CONTEXT(2) 
PARAMETRIC_REPRESENTATION_CONTEXT() REPRESENTATION_CONTEXT('2D SPACE',''
  ) );
#227 = PCURVE('',#198,#228);
#228 = DEFINITIONAL_REPRESENTATION('',(#229),#232);
#229 = B_SPLINE_CURVE_WITH_KNOTS('',1,(#230,#231),.UNSPECIFIED.,.F.,.F.,
  (2,2),(0.E+000,0.707106781187),.PIECEWISE_BEZIER_KNOTS.);
#230 = CARTESIAN_POINT('',(6.28318530718,0.E+000));
#231 = CARTESIAN_POINT('',(6.28318530718,-0.5));
#232 = ( GEOMETRIC_REPRESENTATION_CONTEXT(2) 
PARAMETRIC_REPRESENTATION_CONTEXT() REPRESENTATION_CONTEXT('2D SPACE',''
  ) );
#233 = ORIENTED_EDGE('',*,*,#183,.T.);
#234 = ORIENTED_EDGE('',*,*,#213,.T.);
#235 = ORIENTED_EDGE('',*,*,#236,.F.);
#236 = EDGE_CURVE('',#214,#214,#237,.T.);
#237 = SURFACE_CURVE('',#238,(#243,#250),.PCURVE_S1.);
#238 = CIRCLE('',#239,1.5);
#239 = AXIS2_PLACEMENT_3D('',#240,#241,#242);
#240 = CARTESIAN_POINT('',(-36.26799671507,0.E+000,0.E+000));
#241 = DIRECTION('',(1.,0.E+000,0.E+000));
#242 = DIRECTION('',(0.E+000,1.,0.E+000));
#243 = PCURVE('',#198,#244);
#244 = DEFINITIONAL_REPRESENTATION('',(#245),#249);
#245 = LINE('',#246,#247);
#246 = CARTESIAN_POINT('',(0.E+000,-0.5));
#247 = VECTOR('',#248,1.);
#248 = DIRECTION('',(1.,-0.E+000));
#249 = ( GEOMETRIC_REPRESENTATION_CONTEXT(2) 
PARAMETRIC_REPRESENTATION_CONTEXT() REPRESENTATION_CONTEXT('2D SPACE',''
  ) );
#250 = PCURVE('',#251,#256);
#251 = PLANE('',#252);
#252 = AXIS2_PLACEMENT_3D('',#253,#254,#255);
#253 = CARTESIAN_POINT('',(-36.26799671507,0.E+000,0.E+000));
#254 = DIRECTION('',(1.,0.E+000,0.E+000));
#255 = DIRECTION('',(0.E+000,1.,0.E+000));
#256 = DEFINITIONAL_REPRESENTATION('',(#257),#261);
#257 = CIRCLE('',#258,1.5);
#258 = AXIS2_PLACEMENT_2D('',#259,#260);
#259 = CARTESIAN_POINT('',(0.E+000,0.E+000));
#260 = DIRECTION('',(1.,0.E+000));
#261 = ( GEOMETRIC_REPRESENTATION_CONTEXT(2) 
PARAMETRIC_REPRESENTATION_CONTEXT() REPRESENTATION_CONTEXT('2D SPACE',''
  ) );
#262 = ADVANCED_FACE('',(#263,#294),#68,.F.);
#263 = FACE_BOUND('',#264,.F.);
#264 = EDGE_LOOP('',(#265));
#265 = ORIENTED_EDGE('',*,*,#266,.T.);
#266 = EDGE_CURVE('',#267,#267,#269,.T.);
#267 = VERTEX_POINT('',#268);
#268 = CARTESIAN_POINT('',(7.200328492333E-002,3.,0.E+000));
#269 = SURFACE_CURVE('',#270,(#275,#282),.PCURVE_S1.);
#270 = CIRCLE('',#271,3.);
#271 = AXIS2_PLACEMENT_3D('',#272,#273,#274);
#272 = CARTESIAN_POINT('',(7.200328492333E-002,0.E+000,0.E+000));
#273 = DIRECTION('',(1.,0.E+000,0.E+000));
#274 = DIRECTION('',(0.E+000,1.,0.E+000));
#275 = PCURVE('',#68,#276);
#276 = DEFINITIONAL_REPRESENTATION('',(#277),#281);
#277 = CIRCLE('',#278,3.);
#278 = AXIS2_PLACEMENT_2D('',#279,#280);
#279 = CARTESIAN_POINT('',(0.E+000,0.E+000));
#280 = DIRECTION('',(1.,0.E+000));
#281 = ( GEOMETRIC_REPRESENTATION_CONTEXT(2) 
PARAMETRIC_REPRESENTATION_CONTEXT() REPRESENTATION_CONTEXT('2D SPACE',''
  ) );
#282 = PCURVE('',#283,#288);
#283 = CYLINDRICAL_SURFACE('',#284,3.);
#284 = AXIS2_PLACEMENT_3D('',#285,#286,#287);
#285 = CARTESIAN_POINT('',(3.072003284923,0.E+000,0.E+000));
#286 = DIRECTION('',(-1.,-0.E+000,-0.E+000));
#287 = DIRECTION('',(0.E+000,1.,0.E+000));
#288 = DEFINITIONAL_REPRESENTATION('',(#289),#293);
#289 = LINE('',#290,#291);
#290 = CARTESIAN_POINT('',(-0.E+000,3.));
#291 = VECTOR('',#292,1.);
#292 = DIRECTION('',(-1.,0.E+000));
#293 = ( GEOMETRIC_REPRESENTATION_CONTEXT(2) 
PARAMETRIC_REPRESENTATION_CONTEXT() REPRESENTATION_CONTEXT('2D SPACE',''
  ) );
#294 = FACE_BOUND('',#295,.F.);
#295 = EDGE_LOOP('',(#296,#297,#298));
#296 = ORIENTED_EDGE('',*,*,#51,.F.);
#297 = ORIENTED_EDGE('',*,*,#160,.F.);
#298 = ORIENTED_EDGE('',*,*,#299,.F.);
#299 = EDGE_CURVE('',#52,#140,#300,.T.);
#300 = SURFACE_CURVE('',#301,(#306,#313),.PCURVE_S1.);
#301 = CIRCLE('',#302,1.25);
#302 = AXIS2_PLACEMENT_3D('',#303,#304,#305);
#303 = CARTESIAN_POINT('',(7.200328492333E-002,1.029E-013,1.));
#304 = DIRECTION('',(1.,-1.128E-013,1.1291E-013));
#305 = DIRECTION('',(1.128E-013,1.,-1.1291E-013));
#306 = PCURVE('',#68,#307);
#307 = DEFINITIONAL_REPRESENTATION('',(#308),#312);
#308 = CIRCLE('',#309,1.25);
#309 = AXIS2_PLACEMENT_2D('',#310,#311);
#310 = CARTESIAN_POINT('',(1.029E-013,1.));
#311 = DIRECTION('',(1.,-1.1291E-013));
#312 = ( GEOMETRIC_REPRESENTATION_CONTEXT(2) 
PARAMETRIC_REPRESENTATION_CONTEXT() REPRESENTATION_CONTEXT('2D SPACE',''
  ) );
#313 = PCURVE('',#95,#314);
#314 = DEFINITIONAL_REPRESENTATION('',(#315),#319);
#315 = LINE('',#316,#317);
#316 = CARTESIAN_POINT('',(0.E+000,-16.92799671507));
#317 = VECTOR('',#318,1.);
#318 = DIRECTION('',(1.,0.E+000));
#319 = ( GEOMETRIC_REPRESENTATION_CONTEXT(2) 
PARAMETRIC_REPRESENTATION_CONTEXT() REPRESENTATION_CONTEXT('2D SPACE',''
  ) );
#320 = ADVANCED_FACE('',(#321),#95,.F.);
#321 = FACE_BOUND('',#322,.F.);
#322 = EDGE_LOOP('',(#323,#352,#375,#397,#398,#399,#400,#422));
#323 = ORIENTED_EDGE('',*,*,#324,.F.);
#324 = EDGE_CURVE('',#325,#325,#327,.T.);
#325 = VERTEX_POINT('',#326);
#326 = CARTESIAN_POINT('',(3.072003284923,1.25,1.));
#327 = SURFACE_CURVE('',#328,(#333,#340),.PCURVE_S1.);
#328 = CIRCLE('',#329,1.25);
#329 = AXIS2_PLACEMENT_3D('',#330,#331,#332);
#330 = CARTESIAN_POINT('',(3.072003284923,-2.355E-013,1.));
#331 = DIRECTION('',(1.,-1.128E-013,1.1291E-013));
#332 = DIRECTION('',(1.128E-013,1.,-1.1291E-013));
#333 = PCURVE('',#95,#334);
#334 = DEFINITIONAL_REPRESENTATION('',(#335),#339);
#335 = LINE('',#336,#337);
#336 = CARTESIAN_POINT('',(0.E+000,-13.92799671507));
#337 = VECTOR('',#338,1.);
#338 = DIRECTION('',(1.,0.E+000));
#339 = ( GEOMETRIC_REPRESENTATION_CONTEXT(2) 
PARAMETRIC_REPRESENTATION_CONTEXT() REPRESENTATION_CONTEXT('2D SPACE',''
  ) );
#340 = PCURVE('',#341,#346);
#341 = PLANE('',#342);
#342 = AXIS2_PLACEMENT_3D('',#343,#344,#345);
#343 = CARTESIAN_POINT('',(3.072003284923,0.E+000,0.E+000));
#344 = DIRECTION('',(1.,0.E+000,0.E+000));
#345 = DIRECTION('',(0.E+000,1.,0.E+000));
#346 = DEFINITIONAL_REPRESENTATION('',(#347),#351);
#347 = CIRCLE('',#348,1.25);
#348 = AXIS2_PLACEMENT_2D('',#349,#350);
#349 = CARTESIAN_POINT('',(-2.355E-013,1.));
#350 = DIRECTION('',(1.,-1.1291E-013));
#351 = ( GEOMETRIC_REPRESENTATION_CONTEXT(2) 
PARAMETRIC_REPRESENTATION_CONTEXT() REPRESENTATION_CONTEXT('2D SPACE',''
  ) );
#352 = ORIENTED_EDGE('',*,*,#353,.T.);
#353 = EDGE_CURVE('',#325,#354,#356,.T.);
#354 = VERTEX_POINT('',#355);
#355 = CARTESIAN_POINT('',(-3.,1.25,1.));
#356 = SEAM_CURVE('',#357,(#361,#368),.PCURVE_S1.);
#357 = LINE('',#358,#359);
#358 = CARTESIAN_POINT('',(17.,1.249999999998,1.000000000002));
#359 = VECTOR('',#360,1.);
#360 = DIRECTION('',(-1.,1.1291E-013,-1.1291E-013));
#361 = PCURVE('',#95,#362);
#362 = DEFINITIONAL_REPRESENTATION('',(#363),#367);
#363 = LINE('',#364,#365);
#364 = CARTESIAN_POINT('',(6.28318530718,0.E+000));
#365 = VECTOR('',#366,1.);
#366 = DIRECTION('',(0.E+000,-1.));
#367 = ( GEOMETRIC_REPRESENTATION_CONTEXT(2) 
PARAMETRIC_REPRESENTATION_CONTEXT() REPRESENTATION_CONTEXT('2D SPACE',''
  ) );
#368 = PCURVE('',#95,#369);
#369 = DEFINITIONAL_REPRESENTATION('',(#370),#374);
#370 = LINE('',#371,#372);
#371 = CARTESIAN_POINT('',(0.E+000,0.E+000));
#372 = VECTOR('',#373,1.);
#373 = DIRECTION('',(0.E+000,-1.));
#374 = ( GEOMETRIC_REPRESENTATION_CONTEXT(2) 
PARAMETRIC_REPRESENTATION_CONTEXT() REPRESENTATION_CONTEXT('2D SPACE',''
  ) );
#375 = ORIENTED_EDGE('',*,*,#376,.T.);
#376 = EDGE_CURVE('',#354,#81,#377,.T.);
#377 = SURFACE_CURVE('',#378,(#383,#390),.PCURVE_S1.);
#378 = CIRCLE('',#379,1.25);
#379 = AXIS2_PLACEMENT_3D('',#380,#381,#382);
#380 = CARTESIAN_POINT('',(-3.,4.52E-013,1.));
#381 = DIRECTION('',(1.,-1.13E-013,1.13E-013));
#382 = DIRECTION('',(1.13E-013,1.,-1.13E-013));
#383 = PCURVE('',#95,#384);
#384 = DEFINITIONAL_REPRESENTATION('',(#385),#389);
#385 = LINE('',#386,#387);
#386 = CARTESIAN_POINT('',(0.E+000,-20.));
#387 = VECTOR('',#388,1.);
#388 = DIRECTION('',(1.,0.E+000));
#389 = ( GEOMETRIC_REPRESENTATION_CONTEXT(2) 
PARAMETRIC_REPRESENTATION_CONTEXT() REPRESENTATION_CONTEXT('2D SPACE',''
  ) );
#390 = PCURVE('',#123,#391);
#391 = DEFINITIONAL_REPRESENTATION('',(#392),#396);
#392 = CIRCLE('',#393,1.25);
#393 = AXIS2_PLACEMENT_2D('',#394,#395);
#394 = CARTESIAN_POINT('',(4.E-017,-1.1E-016));
#395 = DIRECTION('',(1.,-1.1291E-013));
#396 = ( GEOMETRIC_REPRESENTATION_CONTEXT(2) 
PARAMETRIC_REPRESENTATION_CONTEXT() REPRESENTATION_CONTEXT('2D SPACE',''
  ) );
#397 = ORIENTED_EDGE('',*,*,#80,.F.);
#398 = ORIENTED_EDGE('',*,*,#299,.T.);
#399 = ORIENTED_EDGE('',*,*,#139,.T.);
#400 = ORIENTED_EDGE('',*,*,#401,.T.);
#401 = EDGE_CURVE('',#107,#354,#402,.T.);
#402 = SURFACE_CURVE('',#403,(#408,#415),.PCURVE_S1.);
#403 = CIRCLE('',#404,1.25);
#404 = AXIS2_PLACEMENT_3D('',#405,#406,#407);
#405 = CARTESIAN_POINT('',(-3.,4.52E-013,1.));
#406 = DIRECTION('',(1.,-1.13E-013,1.13E-013));
#407 = DIRECTION('',(1.13E-013,1.,-1.13E-013));
#408 = PCURVE('',#95,#409);
#409 = DEFINITIONAL_REPRESENTATION('',(#410),#414);
#410 = LINE('',#411,#412);
#411 = CARTESIAN_POINT('',(0.E+000,-20.));
#412 = VECTOR('',#413,1.);
#413 = DIRECTION('',(1.,0.E+000));
#414 = ( GEOMETRIC_REPRESENTATION_CONTEXT(2) 
PARAMETRIC_REPRESENTATION_CONTEXT() REPRESENTATION_CONTEXT('2D SPACE',''
  ) );
#415 = PCURVE('',#123,#416);
#416 = DEFINITIONAL_REPRESENTATION('',(#417),#421);
#417 = CIRCLE('',#418,1.25);
#418 = AXIS2_PLACEMENT_2D('',#419,#420);
#419 = CARTESIAN_POINT('',(4.E-017,-1.1E-016));
#420 = DIRECTION('',(1.,-1.1291E-013));
#421 = ( GEOMETRIC_REPRESENTATION_CONTEXT(2) 
PARAMETRIC_REPRESENTATION_CONTEXT() REPRESENTATION_CONTEXT('2D SPACE',''
  ) );
#422 = ORIENTED_EDGE('',*,*,#353,.F.);
#423 = ADVANCED_FACE('',(#424),#123,.T.);
#424 = FACE_BOUND('',#425,.T.);
#425 = EDGE_LOOP('',(#426,#427,#428));
#426 = ORIENTED_EDGE('',*,*,#401,.T.);
#427 = ORIENTED_EDGE('',*,*,#376,.T.);
#428 = ORIENTED_EDGE('',*,*,#106,.F.);
#429 = ADVANCED_FACE('',(#430),#251,.F.);
#430 = FACE_BOUND('',#431,.F.);
#431 = EDGE_LOOP('',(#432));
#432 = ORIENTED_EDGE('',*,*,#236,.T.);
#433 = ADVANCED_FACE('',(#434),#283,.T.);
#434 = FACE_BOUND('',#435,.F.);
#435 = EDGE_LOOP('',(#436,#460,#481,#482));
#436 = ORIENTED_EDGE('',*,*,#437,.T.);
#437 = EDGE_CURVE('',#438,#438,#440,.T.);
#438 = VERTEX_POINT('',#439);
#439 = CARTESIAN_POINT('',(3.072003284923,3.,0.E+000));
#440 = SURFACE_CURVE('',#441,(#446,#453),.PCURVE_S1.);
#441 = CIRCLE('',#442,3.);
#442 = AXIS2_PLACEMENT_3D('',#443,#444,#445);
#443 = CARTESIAN_POINT('',(3.072003284923,0.E+000,0.E+000));
#444 = DIRECTION('',(1.,0.E+000,0.E+000));
#445 = DIRECTION('',(0.E+000,1.,0.E+000));
#446 = PCURVE('',#283,#447);
#447 = DEFINITIONAL_REPRESENTATION('',(#448),#452);
#448 = LINE('',#449,#450);
#449 = CARTESIAN_POINT('',(-0.E+000,0.E+000));
#450 = VECTOR('',#451,1.);
#451 = DIRECTION('',(-1.,0.E+000));
#452 = ( GEOMETRIC_REPRESENTATION_CONTEXT(2) 
PARAMETRIC_REPRESENTATION_CONTEXT() REPRESENTATION_CONTEXT('2D SPACE',''
  ) );
#453 = PCURVE('',#341,#454);
#454 = DEFINITIONAL_REPRESENTATION('',(#455),#459);
#455 = CIRCLE('',#456,3.);
#456 = AXIS2_PLACEMENT_2D('',#457,#458);
#457 = CARTESIAN_POINT('',(0.E+000,0.E+000));
#458 = DIRECTION('',(1.,-0.E+000));
#459 = ( GEOMETRIC_REPRESENTATION_CONTEXT(2) 
PARAMETRIC_REPRESENTATION_CONTEXT() REPRESENTATION_CONTEXT('2D SPACE',''
  ) );
#460 = ORIENTED_EDGE('',*,*,#461,.T.);
#461 = EDGE_CURVE('',#438,#267,#462,.T.);
#462 = SEAM_CURVE('',#463,(#467,#474),.PCURVE_S1.);
#463 = LINE('',#464,#465);
#464 = CARTESIAN_POINT('',(3.072003284923,3.,0.E+000));
#465 = VECTOR('',#466,1.);
#466 = DIRECTION('',(-1.,0.E+000,0.E+000));
#467 = PCURVE('',#283,#468);
#468 = DEFINITIONAL_REPRESENTATION('',(#469),#473);
#469 = LINE('',#470,#471);
#470 = CARTESIAN_POINT('',(-0.E+000,0.E+000));
#471 = VECTOR('',#472,1.);
#472 = DIRECTION('',(-0.E+000,1.));
#473 = ( GEOMETRIC_REPRESENTATION_CONTEXT(2) 
PARAMETRIC_REPRESENTATION_CONTEXT() REPRESENTATION_CONTEXT('2D SPACE',''
  ) );
#474 = PCURVE('',#283,#475);
#475 = DEFINITIONAL_REPRESENTATION('',(#476),#480);
#476 = LINE('',#477,#478);
#477 = CARTESIAN_POINT('',(-6.28318530718,0.E+000));
#478 = VECTOR('',#479,1.);
#479 = DIRECTION('',(-0.E+000,1.));
#480 = ( GEOMETRIC_REPRESENTATION_CONTEXT(2) 
PARAMETRIC_REPRESENTATION_CONTEXT() REPRESENTATION_CONTEXT('2D SPACE',''
  ) );
#481 = ORIENTED_EDGE('',*,*,#266,.F.);
#482 = ORIENTED_EDGE('',*,*,#461,.F.);
#483 = ADVANCED_FACE('',(#484,#487),#341,.T.);
#484 = FACE_BOUND('',#485,.F.);
#485 = EDGE_LOOP('',(#486));
#486 = ORIENTED_EDGE('',*,*,#437,.F.);
#487 = FACE_BOUND('',#488,.F.);
#488 = EDGE_LOOP('',(#489));
#489 = ORIENTED_EDGE('',*,*,#324,.T.);
#490 = ( GEOMETRIC_REPRESENTATION_CONTEXT(3) 
GLOBAL_UNCERTAINTY_ASSIGNED_CONTEXT((#494)) GLOBAL_UNIT_ASSIGNED_CONTEXT
((#491,#492,#493)) REPRESENTATION_CONTEXT('Context #1',
  '3D Context with UNIT and UNCERTAINTY') );
#491 = ( LENGTH_UNIT() NAMED_UNIT(*) SI_UNIT(.MILLI.,.METRE.) );
#492 = ( NAMED_UNIT(*) PLANE_ANGLE_UNIT() SI_UNIT($,.RADIAN.) );
#493 = ( NAMED_UNIT(*) SI_UNIT($,.STERADIAN.) SOLID_ANGLE_UNIT() );
#494 = UNCERTAINTY_MEASURE_WITH_UNIT(LENGTH_MEASURE(1.E-007),#491,
  'distance_accuracy_value','confusion accuracy');
#495 = PRODUCT_RELATED_PRODUCT_CATEGORY('part',$,(#7));
#496 = MECHANICAL_DESIGN_GEOMETRIC_PRESENTATION_REPRESENTATION('',(#497,
    #505,#512,#519,#526,#533,#540,#547),#490);
#497 = STYLED_ITEM('color',(#498),#17);
#498 = PRESENTATION_STYLE_ASSIGNMENT((#499));
#499 = SURFACE_STYLE_USAGE(.BOTH.,#500);
#500 = SURFACE_SIDE_STYLE('',(#501));
#501 = SURFACE_STYLE_FILL_AREA(#502);
#502 = FILL_AREA_STYLE('',(#503));
#503 = FILL_AREA_STYLE_COLOUR('',#504);
#504 = COLOUR_RGB('',0.670588254929,0.670588254929,0.501960813999);
#505 = STYLED_ITEM('color',(#506),#209);
#506 = PRESENTATION_STYLE_ASSIGNMENT((#507));
#507 = SURFACE_STYLE_USAGE(.BOTH.,#508);
#508 = SURFACE_SIDE_STYLE('',(#509));
#509 = SURFACE_STYLE_FILL_AREA(#510);
#510 = FILL_AREA_STYLE('',(#511));
#511 = FILL_AREA_STYLE_COLOUR('',#504);
#512 = STYLED_ITEM('color',(#513),#262);
#513 = PRESENTATION_STYLE_ASSIGNMENT((#514));
#514 = SURFACE_STYLE_USAGE(.BOTH.,#515);
#515 = SURFACE_SIDE_STYLE('',(#516));
#516 = SURFACE_STYLE_FILL_AREA(#517);
#517 = FILL_AREA_STYLE('',(#518));
#518 = FILL_AREA_STYLE_COLOUR('',#504);
#519 = STYLED_ITEM('color',(#520),#320);
#520 = PRESENTATION_STYLE_ASSIGNMENT((#521));
#521 = SURFACE_STYLE_USAGE(.BOTH.,#522);
#522 = SURFACE_SIDE_STYLE('',(#523));
#523 = SURFACE_STYLE_FILL_AREA(#524);
#524 = FILL_AREA_STYLE('',(#525));
#525 = FILL_AREA_STYLE_COLOUR('',#504);
#526 = STYLED_ITEM('color',(#527),#423);
#527 = PRESENTATION_STYLE_ASSIGNMENT((#528));
#528 = SURFACE_STYLE_USAGE(.BOTH.,#529);
#529 = SURFACE_SIDE_STYLE('',(#530));
#530 = SURFACE_STYLE_FILL_AREA(#531);
#531 = FILL_AREA_STYLE('',(#532));
#532 = FILL_AREA_STYLE_COLOUR('',#504);
#533 = STYLED_ITEM('color',(#534),#429);
#534 = PRESENTATION_STYLE_ASSIGNMENT((#535));
#535 = SURFACE_STYLE_USAGE(.BOTH.,#536);
#536 = SURFACE_SIDE_STYLE('',(#537));
#537 = SURFACE_STYLE_FILL_AREA(#538);
#538 = FILL_AREA_STYLE('',(#539));
#539 = FILL_AREA_STYLE_COLOUR('',#504);
#540 = STYLED_ITEM('color',(#541),#433);
#541 = PRESENTATION_STYLE_ASSIGNMENT((#542));
#542 = SURFACE_STYLE_USAGE(.BOTH.,#543);
#543 = SURFACE_SIDE_STYLE('',(#544));
#544 = SURFACE_STYLE_FILL_AREA(#545);
#545 = FILL_AREA_STYLE('',(#546));
#546 = FILL_AREA_STYLE_COLOUR('',#504);
#547 = STYLED_ITEM('color',(#548),#483);
#548 = PRESENTATION_STYLE_ASSIGNMENT((#549));
#549 = SURFACE_STYLE_USAGE(.BOTH.,#550);
#550 = SURFACE_SIDE_STYLE('',(#551));
#551 = SURFACE_STYLE_FILL_AREA(#552);
#552 = FILL_AREA_STYLE('',(#553));
#553 = FILL_AREA_STYLE_COLOUR('',#504);
ENDSEC;
END-ISO-10303-21;
