ISO-10303-21;
HEADER;
FILE_DESCRIPTION (( 'STEP AP214' ),
    '1' );
FILE_NAME ('volant450x130.STEP',
    '2019-08-03T08:51:35',
    ( '' ),
    ( '' ),
    'SwSTEP 2.0',
    'SolidWorks 2012',
    '' );
FILE_SCHEMA (( 'AUTOMOTIVE_DESIGN' ));
ENDSEC;

DATA;
#1 = SURFACE_STYLE_FILL_AREA ( #66 ) ;
#2 = COLOUR_RGB ( '',0.7921568627450980000, 0.8196078431372548800, 0.9333333333333333500 ) ;
#3 =( LENGTH_UNIT ( ) NAMED_UNIT ( * ) SI_UNIT ( .MILLI., .METRE. ) );
#4 = FILL_AREA_STYLE ('',( #10 ) ) ;
#5 =( NAMED_UNIT ( * ) PLANE_ANGLE_UNIT ( ) SI_UNIT ( $, .RADIAN. ) );
#6 =( NAMED_UNIT ( * ) SI_UNIT ( $, .STERADIAN. ) SOLID_ANGLE_UNIT ( ) );
#7 = SURFACE_SIDE_STYLE ('',( #138 ) ) ;
#8 = DIRECTION ( 'NONE',  ( -0.0000000000000000000, -0.0000000000000000000, -1.000000000000000000 ) ) ;
#9 = CARTESIAN_POINT ( 'NONE',  ( -25.00000000000000000, 0.0000000000000000000, 130.0000000000000000 ) ) ;
#10 = FILL_AREA_STYLE_COLOUR ( '', #137 ) ;
#11 = SURFACE_STYLE_USAGE ( .BOTH. , #7 ) ;
#12 = DIRECTION ( 'NONE',  ( -1.000000000000000000, 0.0000000000000000000, 0.0000000000000000000 ) ) ;
#13 = CARTESIAN_POINT ( 'NONE',  ( 0.0000000000000000000, 0.0000000000000000000, 130.0000000000000000 ) ) ;
#14 = DIRECTION ( 'NONE',  ( -0.0000000000000000000, -0.0000000000000000000, -1.000000000000000000 ) ) ;
#15 = DIRECTION ( 'NONE',  ( -0.0000000000000000000, -0.0000000000000000000, -1.000000000000000000 ) ) ;
#16 = DIRECTION ( 'NONE',  ( -1.000000000000000000, 0.0000000000000000000, 0.0000000000000000000 ) ) ;
#17 = DIRECTION ( 'NONE',  ( 0.0000000000000000000, 0.0000000000000000000, 1.000000000000000000 ) ) ;
#18 = CARTESIAN_POINT ( 'NONE',  ( 0.0000000000000000000, 0.0000000000000000000, 0.0000000000000000000 ) ) ;
#19 = DIRECTION ( 'NONE',  ( 1.000000000000000000, 0.0000000000000000000, 0.0000000000000000000 ) ) ;
#20 = CARTESIAN_POINT ( 'NONE',  ( 25.00000000000000000, 3.061616997868383000E-015, 130.0000000000000000 ) ) ;
#21 = DIRECTION ( 'NONE',  ( 1.000000000000000000, 0.0000000000000000000, 0.0000000000000000000 ) ) ;
#22 = CARTESIAN_POINT ( 'NONE',  ( 0.0000000000000000000, 0.0000000000000000000, 130.0000000000000000 ) ) ;
#23 = DIRECTION ( 'NONE',  ( 1.000000000000000000, 0.0000000000000000000, 0.0000000000000000000 ) ) ;
#24 = DIRECTION ( 'NONE',  ( 1.000000000000000000, 0.0000000000000000000, 0.0000000000000000000 ) ) ;
#25 = CARTESIAN_POINT ( 'NONE',  ( 0.0000000000000000000, 0.0000000000000000000, 130.0000000000000000 ) ) ;
#26 = DIRECTION ( 'NONE',  ( -0.0000000000000000000, -0.0000000000000000000, -1.000000000000000000 ) ) ;
#27 = CARTESIAN_POINT ( 'NONE',  ( 0.0000000000000000000, 0.0000000000000000000, 130.0000000000000000 ) ) ;
#28 = CARTESIAN_POINT ( 'NONE',  ( 0.0000000000000000000, 0.0000000000000000000, 130.0000000000000000 ) ) ;
#29 = DIRECTION ( 'NONE',  ( 0.0000000000000000000, 0.0000000000000000000, 1.000000000000000000 ) ) ;
#30 = DIRECTION ( 'NONE',  ( -0.0000000000000000000, -0.0000000000000000000, -1.000000000000000000 ) ) ;
#31 = DIRECTION ( 'NONE',  ( 0.0000000000000000000, 0.0000000000000000000, 1.000000000000000000 ) ) ;
#32 = DIRECTION ( 'NONE',  ( 0.0000000000000000000, 0.0000000000000000000, 1.000000000000000000 ) ) ;
#33 = CARTESIAN_POINT ( 'NONE',  ( 0.0000000000000000000, 0.0000000000000000000, 0.0000000000000000000 ) ) ;
#34 = CARTESIAN_POINT ( 'NONE',  ( -225.0000000000000000, 0.0000000000000000000, 130.0000000000000000 ) ) ;
#35 = DIRECTION ( 'NONE',  ( 0.0000000000000000000, 0.0000000000000000000, 1.000000000000000000 ) ) ;
#36 = CARTESIAN_POINT ( 'NONE',  ( 0.0000000000000000000, 0.0000000000000000000, 0.0000000000000000000 ) ) ;
#37 = DIRECTION ( 'NONE',  ( -0.0000000000000000000, -0.0000000000000000000, -1.000000000000000000 ) ) ;
#38 = CARTESIAN_POINT ( 'NONE',  ( 225.0000000000000000, 2.755455298081544600E-014, 130.0000000000000000 ) ) ;
#39 = DIRECTION ( 'NONE',  ( -1.000000000000000000, 0.0000000000000000000, 0.0000000000000000000 ) ) ;
#40 = DIRECTION ( 'NONE',  ( 0.0000000000000000000, 0.0000000000000000000, 1.000000000000000000 ) ) ;
#41 = CARTESIAN_POINT ( 'NONE',  ( 0.0000000000000000000, 0.0000000000000000000, 0.0000000000000000000 ) ) ;
#42 = DIRECTION ( 'NONE',  ( 0.0000000000000000000, 0.0000000000000000000, 1.000000000000000000 ) ) ;
#43 = DIRECTION ( 'NONE',  ( 1.000000000000000000, 0.0000000000000000000, 0.0000000000000000000 ) ) ;
#44 = CARTESIAN_POINT ( 'NONE',  ( 0.0000000000000000000, 0.0000000000000000000, 130.0000000000000000 ) ) ;
#45 = DIRECTION ( 'NONE',  ( 1.000000000000000000, 0.0000000000000000000, 0.0000000000000000000 ) ) ;
#46 = CARTESIAN_POINT ( 'NONE',  ( 0.0000000000000000000, 0.0000000000000000000, 130.0000000000000000 ) ) ;
#47 = DIRECTION ( 'NONE',  ( 1.000000000000000000, 0.0000000000000000000, 0.0000000000000000000 ) ) ;
#48 = DIRECTION ( 'NONE',  ( -0.0000000000000000000, -0.0000000000000000000, -1.000000000000000000 ) ) ;
#49 = DIRECTION ( 'NONE',  ( 0.0000000000000000000, 0.0000000000000000000, 1.000000000000000000 ) ) ;
#50 = DIRECTION ( 'NONE',  ( 1.000000000000000000, 0.0000000000000000000, 0.0000000000000000000 ) ) ;
#51 =( NAMED_UNIT ( * ) SI_UNIT ( $, .STERADIAN. ) SOLID_ANGLE_UNIT ( ) );
#52 = APPLICATION_PROTOCOL_DEFINITION ( 'draft international standard', 'automotive_design', 1998, #67 ) ;
#53 = FILL_AREA_STYLE_COLOUR ( '', #2 ) ;
#54 = DIRECTION ( 'NONE',  ( 0.0000000000000000000, 0.0000000000000000000, 1.000000000000000000 ) ) ;
#55 = DIRECTION ( 'NONE',  ( -0.0000000000000000000, -0.0000000000000000000, -1.000000000000000000 ) ) ;
#56 = CARTESIAN_POINT ( 'NONE',  ( 25.00000000000000000, 3.061616997868383000E-015, 0.0000000000000000000 ) ) ;
#57 = CARTESIAN_POINT ( 'NONE',  ( -25.00000000000000000, 0.0000000000000000000, 0.0000000000000000000 ) ) ;
#58 = CARTESIAN_POINT ( 'NONE',  ( -225.0000000000000000, 0.0000000000000000000, 130.0000000000000000 ) ) ;
#59 = CARTESIAN_POINT ( 'NONE',  ( 0.0000000000000000000, 0.0000000000000000000, 130.0000000000000000 ) ) ;
#60 =( NAMED_UNIT ( * ) PLANE_ANGLE_UNIT ( ) SI_UNIT ( $, .RADIAN. ) );
#61 = CARTESIAN_POINT ( 'NONE',  ( -225.0000000000000000, 0.0000000000000000000, 0.0000000000000000000 ) ) ;
#62 = PRODUCT_CONTEXT ( 'NONE', #67, 'mechanical' ) ;
#63 = PLANE ( 'NONE',  #95 ) ;
#64 = CARTESIAN_POINT ( 'NONE',  ( 225.0000000000000000, 2.755455298081544600E-014, 130.0000000000000000 ) ) ;
#65 = PLANE ( 'NONE',  #107 ) ;
#66 = FILL_AREA_STYLE ('',( #53 ) ) ;
#67 = APPLICATION_CONTEXT ( 'automotive_design' ) ;
#68 = DIRECTION ( 'NONE',  ( 0.0000000000000000000, 0.0000000000000000000, 1.000000000000000000 ) ) ;
#69 = APPLICATION_CONTEXT ( 'automotive_design' ) ;
#70 = DIRECTION ( 'NONE',  ( 1.000000000000000000, 0.0000000000000000000, -0.0000000000000000000 ) ) ;
#71 = CARTESIAN_POINT ( 'NONE',  ( 25.00000000000000000, 3.061616997868383000E-015, 130.0000000000000000 ) ) ;
#72 = SURFACE_STYLE_USAGE ( .BOTH. , #84 ) ;
#73 = CARTESIAN_POINT ( 'NONE',  ( 0.0000000000000000000, 0.0000000000000000000, 0.0000000000000000000 ) ) ;
#74 = CARTESIAN_POINT ( 'NONE',  ( 225.0000000000000000, 2.755455298081544600E-014, 0.0000000000000000000 ) ) ;
#75 =( LENGTH_UNIT ( ) NAMED_UNIT ( * ) SI_UNIT ( .MILLI., .METRE. ) );
#76 = CARTESIAN_POINT ( 'NONE',  ( 0.0000000000000000000, 0.0000000000000000000, 130.0000000000000000 ) ) ;
#77 =( NAMED_UNIT ( * ) PLANE_ANGLE_UNIT ( ) SI_UNIT ( $, .RADIAN. ) );
#78 = APPLICATION_PROTOCOL_DEFINITION ( 'draft international standard', 'automotive_design', 1998, #69 ) ;
#79 = DIRECTION ( 'NONE',  ( 1.000000000000000000, 0.0000000000000000000, -0.0000000000000000000 ) ) ;
#80 =( LENGTH_UNIT ( ) NAMED_UNIT ( * ) SI_UNIT ( .MILLI., .METRE. ) );
#81 =( NAMED_UNIT ( * ) SI_UNIT ( $, .STERADIAN. ) SOLID_ANGLE_UNIT ( ) );
#82 = CARTESIAN_POINT ( 'NONE',  ( 0.0000000000000000000, 0.0000000000000000000, 0.0000000000000000000 ) ) ;
#83 = DIRECTION ( 'NONE',  ( 0.0000000000000000000, 0.0000000000000000000, 1.000000000000000000 ) ) ;
#84 = SURFACE_SIDE_STYLE ('',( #1 ) ) ;
#85 = CARTESIAN_POINT ( 'NONE',  ( -25.00000000000000000, 0.0000000000000000000, 130.0000000000000000 ) ) ;
#86 = DIRECTION ( 'NONE',  ( -1.000000000000000000, 0.0000000000000000000, 0.0000000000000000000 ) ) ;
#87 = DIRECTION ( 'NONE',  ( 1.000000000000000000, 0.0000000000000000000, 0.0000000000000000000 ) ) ;
#88 = MANIFOLD_SOLID_BREP ( 'Boss.-Extru.1', #148 ) ;
#89 = UNCERTAINTY_MEASURE_WITH_UNIT (LENGTH_MEASURE( 1.000000000000000100E-005 ), #3, 'distance_accuracy_value', 'NONE');
#90 = UNCERTAINTY_MEASURE_WITH_UNIT (LENGTH_MEASURE( 1.000000000000000100E-005 ), #80, 'distance_accuracy_value', 'NONE');
#91 = ADVANCED_BREP_SHAPE_REPRESENTATION ( 'volant450x130', ( #88, #93 ), #104 ) ;
#92 = UNCERTAINTY_MEASURE_WITH_UNIT (LENGTH_MEASURE( 1.000000000000000100E-005 ), #75, 'distance_accuracy_value', 'NONE');
#93 = AXIS2_PLACEMENT_3D ( 'NONE', #82, #68, #87 ) ;
#94 = MECHANICAL_DESIGN_GEOMETRIC_PRESENTATION_REPRESENTATION (  '', ( #96 ), #126 ) ;
#95 = AXIS2_PLACEMENT_3D ( 'NONE', #59, #54, #70 ) ;
#96 = STYLED_ITEM ( 'NONE', ( #143 ), #88 ) ;
#97 = EDGE_CURVE ( 'NONE', #195, #194, #135, .T. ) ;
#98 = PRODUCT_DEFINITION_FORMATION_WITH_SPECIFIED_SOURCE ( 'ANY', '', #184, .NOT_KNOWN. ) ;
#99 = EDGE_CURVE ( 'NONE', #213, #194, #134, .T. ) ;
#100 = MECHANICAL_DESIGN_GEOMETRIC_PRESENTATION_REPRESENTATION (  '', ( #109 ), #125 ) ;
#101 = PRESENTATION_LAYER_ASSIGNMENT (  '', '', ( #96 ) ) ;
#102 = PRESENTATION_LAYER_ASSIGNMENT (  '', '', ( #109 ) ) ;
#103 = AXIS2_PLACEMENT_3D ( 'NONE', #46, #14, #12 ) ;
#104 =( GEOMETRIC_REPRESENTATION_CONTEXT ( 3 ) GLOBAL_UNCERTAINTY_ASSIGNED_CONTEXT ( ( #90 ) ) GLOBAL_UNIT_ASSIGNED_CONTEXT ( ( #80, #60, #81 ) ) REPRESENTATION_CONTEXT ( 'NONE', 'WORKASPACE' ) );
#105 = PRODUCT_DEFINITION ( 'UNKNOWN', '', #98, #152 ) ;
#106 = AXIS2_PLACEMENT_3D ( 'NONE', #25, #48, #39 ) ;
#107 = AXIS2_PLACEMENT_3D ( 'NONE', #73, #83, #79 ) ;
#108 = EDGE_CURVE ( 'NONE', #196, #193, #140, .T. ) ;
#109 = STYLED_ITEM ( 'NONE', ( #168 ), #91 ) ;
#110 = PRODUCT_RELATED_PRODUCT_CATEGORY ( 'part', '', ( #184 ) ) ;
#111 = EDGE_CURVE ( 'NONE', #198, #193, #159, .T. ) ;
#112 = AXIS2_PLACEMENT_3D ( 'NONE', #27, #49, #43 ) ;
#113 = EDGE_CURVE ( 'NONE', #196, #214, #154, .T. ) ;
#114 = AXIS2_PLACEMENT_3D ( 'NONE', #76, #55, #86 ) ;
#115 = AXIS2_PLACEMENT_3D ( 'NONE', #28, #29, #50 ) ;
#116 = AXIS2_PLACEMENT_3D ( 'NONE', #41, #42, #19 ) ;
#117 = AXIS2_PLACEMENT_3D ( 'NONE', #13, #15, #16 ) ;
#118 = EDGE_CURVE ( 'NONE', #214, #198, #155, .T. ) ;
#119 = AXIS2_PLACEMENT_3D ( 'NONE', #18, #31, #21 ) ;
#120 = AXIS2_PLACEMENT_3D ( 'NONE', #36, #32, #24 ) ;
#121 = AXIS2_PLACEMENT_3D ( 'NONE', #33, #40, #47 ) ;
#122 = EDGE_CURVE ( 'NONE', #195, #212, #157, .T. ) ;
#123 = AXIS2_PLACEMENT_3D ( 'NONE', #22, #35, #23 ) ;
#124 = AXIS2_PLACEMENT_3D ( 'NONE', #44, #17, #45 ) ;
#125 =( GEOMETRIC_REPRESENTATION_CONTEXT ( 3 ) GLOBAL_UNCERTAINTY_ASSIGNED_CONTEXT ( ( #92 ) ) GLOBAL_UNIT_ASSIGNED_CONTEXT ( ( #75, #77, #51 ) ) REPRESENTATION_CONTEXT ( 'NONE', 'WORKASPACE' ) );
#126 =( GEOMETRIC_REPRESENTATION_CONTEXT ( 3 ) GLOBAL_UNCERTAINTY_ASSIGNED_CONTEXT ( ( #89 ) ) GLOBAL_UNIT_ASSIGNED_CONTEXT ( ( #3, #5, #6 ) ) REPRESENTATION_CONTEXT ( 'NONE', 'WORKASPACE' ) );
#127 = EDGE_CURVE ( 'NONE', #194, #213, #160, .T. ) ;
#128 = EDGE_CURVE ( 'NONE', #193, #198, #153, .T. ) ;
#129 = EDGE_CURVE ( 'NONE', #214, #196, #161, .T. ) ;
#130 = EDGE_CURVE ( 'NONE', #212, #195, #181, .T. ) ;
#131 = EDGE_CURVE ( 'NONE', #212, #213, #179, .T. ) ;
#132 = SHAPE_DEFINITION_REPRESENTATION ( #151, #91 ) ;
#133 = ORIENTED_EDGE ( 'NONE', *, *, #113, .T. ) ;
#134 = CIRCLE ( 'NONE', #121, 25.00000000000000000 ) ;
#135 = LINE ( 'NONE', #9, #139 ) ;
#136 = ORIENTED_EDGE ( 'NONE', *, *, #108, .F. ) ;
#137 = COLOUR_RGB ( '',0.7921568627450980000, 0.8196078431372548800, 0.9333333333333333500 ) ;
#138 = SURFACE_STYLE_FILL_AREA ( #4 ) ;
#139 = VECTOR ( 'NONE', #8, 1000.000000000000000 ) ;
#140 = LINE ( 'NONE', #38, #158 ) ;
#141 = ORIENTED_EDGE ( 'NONE', *, *, #127, .F. ) ;
#142 = ORIENTED_EDGE ( 'NONE', *, *, #111, .T. ) ;
#143 = PRESENTATION_STYLE_ASSIGNMENT (( #11 ) ) ;
#144 = ORIENTED_EDGE ( 'NONE', *, *, #128, .T. ) ;
#145 = ORIENTED_EDGE ( 'NONE', *, *, #108, .T. ) ;
#146 = ORIENTED_EDGE ( 'NONE', *, *, #122, .F. ) ;
#147 = ORIENTED_EDGE ( 'NONE', *, *, #129, .T. ) ;
#148 = CLOSED_SHELL ( 'NONE', ( #164, #162, #165, #166, #167, #163 ) ) ;
#149 = ORIENTED_EDGE ( 'NONE', *, *, #118, .T. ) ;
#150 = ORIENTED_EDGE ( 'NONE', *, *, #111, .F. ) ;
#151 = PRODUCT_DEFINITION_SHAPE ( 'NONE', 'NONE',  #105 ) ;
#152 = PRODUCT_DEFINITION_CONTEXT ( 'detailed design', #69, 'design' ) ;
#153 = CIRCLE ( 'NONE', #116, 225.0000000000000000 ) ;
#154 = CIRCLE ( 'NONE', #112, 225.0000000000000000 ) ;
#155 = LINE ( 'NONE', #34, #156 ) ;
#156 = VECTOR ( 'NONE', #37, 1000.000000000000000 ) ;
#157 = CIRCLE ( 'NONE', #123, 25.00000000000000000 ) ;
#158 = VECTOR ( 'NONE', #26, 1000.000000000000000 ) ;
#159 = CIRCLE ( 'NONE', #119, 225.0000000000000000 ) ;
#160 = CIRCLE ( 'NONE', #120, 25.00000000000000000 ) ;
#161 = CIRCLE ( 'NONE', #124, 225.0000000000000000 ) ;
#162 = ADVANCED_FACE ( 'NONE', ( #178 ), #182, .T. ) ;
#163 = ADVANCED_FACE ( 'NONE', ( #177 ), #183, .F. ) ;
#164 = ADVANCED_FACE ( 'NONE', ( #180 ), #170, .F. ) ;
#165 = ADVANCED_FACE ( 'NONE', ( #173, #171 ), #63, .T. ) ;
#166 = ADVANCED_FACE ( 'NONE', ( #169, #174 ), #65, .F. ) ;
#167 = ADVANCED_FACE ( 'NONE', ( #172 ), #175, .T. ) ;
#168 = PRESENTATION_STYLE_ASSIGNMENT (( #72 ) ) ;
#169 = FACE_OUTER_BOUND ( 'NONE', #191, .T. ) ;
#170 = CYLINDRICAL_SURFACE ( 'NONE', #117, 25.00000000000000000 ) ;
#171 = FACE_BOUND ( 'NONE', #189, .T. ) ;
#172 = FACE_OUTER_BOUND ( 'NONE', #190, .T. ) ;
#173 = FACE_OUTER_BOUND ( 'NONE', #205, .T. ) ;
#174 = FACE_BOUND ( 'NONE', #202, .T. ) ;
#175 = CYLINDRICAL_SURFACE ( 'NONE', #114, 225.0000000000000000 ) ;
#176 = VECTOR ( 'NONE', #30, 1000.000000000000000 ) ;
#177 = FACE_OUTER_BOUND ( 'NONE', #203, .T. ) ;
#178 = FACE_OUTER_BOUND ( 'NONE', #211, .T. ) ;
#179 = LINE ( 'NONE', #20, #176 ) ;
#180 = FACE_OUTER_BOUND ( 'NONE', #192, .T. ) ;
#181 = CIRCLE ( 'NONE', #115, 25.00000000000000000 ) ;
#182 = CYLINDRICAL_SURFACE ( 'NONE', #106, 225.0000000000000000 ) ;
#183 = CYLINDRICAL_SURFACE ( 'NONE', #103, 25.00000000000000000 ) ;
#184 = PRODUCT ( 'volant450x130', 'volant450x130', '', ( #62 ) ) ;
#185 = ORIENTED_EDGE ( 'NONE', *, *, #130, .F. ) ;
#186 = ORIENTED_EDGE ( 'NONE', *, *, #131, .T. ) ;
#187 = ORIENTED_EDGE ( 'NONE', *, *, #97, .T. ) ;
#188 = ORIENTED_EDGE ( 'NONE', *, *, #118, .F. ) ;
#189 = EDGE_LOOP ( 'NONE', ( #146, #185 ) ) ;
#190 = EDGE_LOOP ( 'NONE', ( #136, #197, #149, #142 ) ) ;
#191 = EDGE_LOOP ( 'NONE', ( #150, #206 ) ) ;
#192 = EDGE_LOOP ( 'NONE', ( #201, #186, #141, #200 ) ) ;
#193 = VERTEX_POINT ( 'NONE', #74 ) ;
#194 = VERTEX_POINT ( 'NONE', #57 ) ;
#195 = VERTEX_POINT ( 'NONE', #85 ) ;
#196 = VERTEX_POINT ( 'NONE', #64 ) ;
#197 = ORIENTED_EDGE ( 'NONE', *, *, #129, .F. ) ;
#198 = VERTEX_POINT ( 'NONE', #61 ) ;
#199 = ORIENTED_EDGE ( 'NONE', *, *, #113, .F. ) ;
#200 = ORIENTED_EDGE ( 'NONE', *, *, #97, .F. ) ;
#201 = ORIENTED_EDGE ( 'NONE', *, *, #122, .T. ) ;
#202 = EDGE_LOOP ( 'NONE', ( #207, #208 ) ) ;
#203 = EDGE_LOOP ( 'NONE', ( #209, #204, #187, #210 ) ) ;
#204 = ORIENTED_EDGE ( 'NONE', *, *, #130, .T. ) ;
#205 = EDGE_LOOP ( 'NONE', ( #147, #133 ) ) ;
#206 = ORIENTED_EDGE ( 'NONE', *, *, #128, .F. ) ;
#207 = ORIENTED_EDGE ( 'NONE', *, *, #127, .T. ) ;
#208 = ORIENTED_EDGE ( 'NONE', *, *, #99, .T. ) ;
#209 = ORIENTED_EDGE ( 'NONE', *, *, #131, .F. ) ;
#210 = ORIENTED_EDGE ( 'NONE', *, *, #99, .F. ) ;
#211 = EDGE_LOOP ( 'NONE', ( #199, #145, #144, #188 ) ) ;
#212 = VERTEX_POINT ( 'NONE', #71 ) ;
#213 = VERTEX_POINT ( 'NONE', #56 ) ;
#214 = VERTEX_POINT ( 'NONE', #58 ) ;
ENDSEC;
END-ISO-10303-21;
