ISO-10303-21;
HEADER;
/* Generated by software containing ST-Developer
 * from STEP Tools, Inc. (www.steptools.com) 
 */

FILE_DESCRIPTION(
/* description */ (''),
/* implementation_level */ '2;1');

FILE_NAME(
/* name */ 
'C:\\Users\\Florent RDB\\Documents\\Stage Electrom\X\E9cnique\\Wats_Mo
tor\\Inventor_ForkHead\\Light\\Deluxe\\CNC\\P1_Deluxe_CNC\\P1_Deluxe_C
NC.stp',
/* time_stamp */ '2019-04-17T13:02:17+02:00',
/* author */ ('Florent RDB'),
/* organization */ (''),
/* preprocessor_version */ 'ST-DEVELOPER v16.13',
/* originating_system */ 'Autodesk Inventor 2018',
/* authorisation */ '');

FILE_SCHEMA (('AUTOMOTIVE_DESIGN { 1 0 10303 214 3 1 1 }'));
ENDSEC;

DATA;
#10=MECHANICAL_DESIGN_GEOMETRIC_PRESENTATION_REPRESENTATION('',(#13),#221);
#11=SHAPE_REPRESENTATION_RELATIONSHIP('SRR','None',#228,#12);
#12=ADVANCED_BREP_SHAPE_REPRESENTATION('',(#14),#220);
#13=STYLED_ITEM('',(#237),#14);
#14=MANIFOLD_SOLID_BREP('Solide5',#114);
#15=LINE('',#214,#17);
#16=LINE('',#215,#18);
#17=VECTOR('',#183,10.);
#18=VECTOR('',#184,10.);
#19=PLANE('',#139);
#20=PLANE('',#145);
#21=PLANE('',#150);
#22=CYLINDRICAL_SURFACE('',#137,56.);
#23=CYLINDRICAL_SURFACE('',#142,53.);
#24=CYLINDRICAL_SURFACE('',#148,46.25);
#25=CYLINDRICAL_SURFACE('',#149,1.50002715266326);
#26=FACE_BOUND('',#41,.T.);
#27=FACE_BOUND('',#43,.T.);
#28=FACE_BOUND('',#45,.T.);
#29=FACE_BOUND('',#47,.T.);
#30=FACE_BOUND('',#49,.T.);
#31=FACE_BOUND('',#53,.T.);
#32=FACE_OUTER_BOUND('',#40,.T.);
#33=FACE_OUTER_BOUND('',#42,.T.);
#34=FACE_OUTER_BOUND('',#44,.T.);
#35=FACE_OUTER_BOUND('',#46,.T.);
#36=FACE_OUTER_BOUND('',#48,.T.);
#37=FACE_OUTER_BOUND('',#50,.T.);
#38=FACE_OUTER_BOUND('',#51,.T.);
#39=FACE_OUTER_BOUND('',#52,.T.);
#40=EDGE_LOOP('',(#83));
#41=EDGE_LOOP('',(#84));
#42=EDGE_LOOP('',(#85));
#43=EDGE_LOOP('',(#86));
#44=EDGE_LOOP('',(#87));
#45=EDGE_LOOP('',(#88,#89));
#46=EDGE_LOOP('',(#90));
#47=EDGE_LOOP('',(#91));
#48=EDGE_LOOP('',(#92));
#49=EDGE_LOOP('',(#93,#94));
#50=EDGE_LOOP('',(#95,#96,#97,#98));
#51=EDGE_LOOP('',(#99,#100,#101,#102));
#52=EDGE_LOOP('',(#103));
#53=EDGE_LOOP('',(#104));
#54=CIRCLE('',#135,56.);
#55=CIRCLE('',#136,54.);
#56=CIRCLE('',#138,56.);
#57=CIRCLE('',#140,1.50002715266326);
#58=CIRCLE('',#141,46.25);
#59=CIRCLE('',#143,53.);
#60=CIRCLE('',#144,53.);
#61=CIRCLE('',#146,1.50002715266326);
#62=CIRCLE('',#147,46.25);
#63=VERTEX_POINT('',#191);
#64=VERTEX_POINT('',#193);
#65=VERTEX_POINT('',#196);
#66=VERTEX_POINT('',#199);
#67=VERTEX_POINT('',#200);
#68=VERTEX_POINT('',#204);
#69=VERTEX_POINT('',#206);
#70=VERTEX_POINT('',#209);
#71=VERTEX_POINT('',#210);
#72=EDGE_CURVE('',#63,#63,#54,.T.);
#73=EDGE_CURVE('',#64,#64,#55,.T.);
#74=EDGE_CURVE('',#65,#65,#56,.T.);
#75=EDGE_CURVE('',#66,#67,#57,.T.);
#76=EDGE_CURVE('',#67,#66,#58,.T.);
#77=EDGE_CURVE('',#68,#68,#59,.T.);
#78=EDGE_CURVE('',#69,#69,#60,.T.);
#79=EDGE_CURVE('',#70,#71,#61,.T.);
#80=EDGE_CURVE('',#71,#70,#62,.T.);
#81=EDGE_CURVE('',#70,#66,#15,.T.);
#82=EDGE_CURVE('',#71,#67,#16,.T.);
#83=ORIENTED_EDGE('',*,*,#72,.T.);
#84=ORIENTED_EDGE('',*,*,#73,.T.);
#85=ORIENTED_EDGE('',*,*,#74,.F.);
#86=ORIENTED_EDGE('',*,*,#72,.F.);
#87=ORIENTED_EDGE('',*,*,#73,.F.);
#88=ORIENTED_EDGE('',*,*,#75,.T.);
#89=ORIENTED_EDGE('',*,*,#76,.T.);
#90=ORIENTED_EDGE('',*,*,#77,.T.);
#91=ORIENTED_EDGE('',*,*,#78,.F.);
#92=ORIENTED_EDGE('',*,*,#77,.F.);
#93=ORIENTED_EDGE('',*,*,#79,.F.);
#94=ORIENTED_EDGE('',*,*,#80,.F.);
#95=ORIENTED_EDGE('',*,*,#80,.T.);
#96=ORIENTED_EDGE('',*,*,#81,.T.);
#97=ORIENTED_EDGE('',*,*,#76,.F.);
#98=ORIENTED_EDGE('',*,*,#82,.F.);
#99=ORIENTED_EDGE('',*,*,#79,.T.);
#100=ORIENTED_EDGE('',*,*,#82,.T.);
#101=ORIENTED_EDGE('',*,*,#75,.F.);
#102=ORIENTED_EDGE('',*,*,#81,.F.);
#103=ORIENTED_EDGE('',*,*,#74,.T.);
#104=ORIENTED_EDGE('',*,*,#78,.T.);
#105=TOROIDAL_SURFACE('',#134,54.,2.);
#106=ADVANCED_FACE('',(#32,#26),#105,.T.);
#107=ADVANCED_FACE('',(#33,#27),#22,.T.);
#108=ADVANCED_FACE('',(#34,#28),#19,.T.);
#109=ADVANCED_FACE('',(#35,#29),#23,.F.);
#110=ADVANCED_FACE('',(#36,#30),#20,.F.);
#111=ADVANCED_FACE('',(#37),#24,.F.);
#112=ADVANCED_FACE('',(#38),#25,.F.);
#113=ADVANCED_FACE('',(#39,#31),#21,.F.);
#114=CLOSED_SHELL('',(#106,#107,#108,#109,#110,#111,#112,#113));
#115=DERIVED_UNIT_ELEMENT(#117,0.);
#116=DERIVED_UNIT_ELEMENT(#223,0.);
#117=(
MASS_UNIT()
NAMED_UNIT(*)
SI_UNIT($,.GRAM.)
);
#118=DERIVED_UNIT((#115,#116));
#119=MEASURE_REPRESENTATION_ITEM('density measure',
POSITIVE_RATIO_MEASURE(1.),#118);
#120=PROPERTY_DEFINITION_REPRESENTATION(#125,#122);
#121=PROPERTY_DEFINITION_REPRESENTATION(#126,#123);
#122=REPRESENTATION('material name',(#124),#220);
#123=REPRESENTATION('density',(#119),#220);
#124=DESCRIPTIVE_REPRESENTATION_ITEM('G\X\E9n\X\E9rique','G\X\E9n\X\E9
rique');
#125=PROPERTY_DEFINITION('material property','material name',#230);
#126=PROPERTY_DEFINITION('material property','density of part',#230);
#127=DATE_TIME_ROLE('creation_date');
#128=APPLIED_DATE_AND_TIME_ASSIGNMENT(#129,#127,(#230));
#129=DATE_AND_TIME(#130,#131);
#130=CALENDAR_DATE(2019,10,4);
#131=LOCAL_TIME(13,32,48.,#132);
#132=COORDINATED_UNIVERSAL_TIME_OFFSET(0,0,.BEHIND.);
#133=AXIS2_PLACEMENT_3D('placement',#189,#151,#152);
#134=AXIS2_PLACEMENT_3D('',#190,#153,#154);
#135=AXIS2_PLACEMENT_3D('',#192,#155,#156);
#136=AXIS2_PLACEMENT_3D('',#194,#157,#158);
#137=AXIS2_PLACEMENT_3D('',#195,#159,#160);
#138=AXIS2_PLACEMENT_3D('',#197,#161,#162);
#139=AXIS2_PLACEMENT_3D('',#198,#163,#164);
#140=AXIS2_PLACEMENT_3D('',#201,#165,#166);
#141=AXIS2_PLACEMENT_3D('',#202,#167,#168);
#142=AXIS2_PLACEMENT_3D('',#203,#169,#170);
#143=AXIS2_PLACEMENT_3D('',#205,#171,#172);
#144=AXIS2_PLACEMENT_3D('',#207,#173,#174);
#145=AXIS2_PLACEMENT_3D('',#208,#175,#176);
#146=AXIS2_PLACEMENT_3D('',#211,#177,#178);
#147=AXIS2_PLACEMENT_3D('',#212,#179,#180);
#148=AXIS2_PLACEMENT_3D('',#213,#181,#182);
#149=AXIS2_PLACEMENT_3D('',#216,#185,#186);
#150=AXIS2_PLACEMENT_3D('',#217,#187,#188);
#151=DIRECTION('axis',(0.,0.,1.));
#152=DIRECTION('refdir',(1.,0.,0.));
#153=DIRECTION('center_axis',(0.,1.,0.));
#154=DIRECTION('ref_axis',(0.,0.,1.));
#155=DIRECTION('center_axis',(0.,1.,0.));
#156=DIRECTION('ref_axis',(1.,0.,0.));
#157=DIRECTION('center_axis',(0.,-1.,0.));
#158=DIRECTION('ref_axis',(1.,0.,0.));
#159=DIRECTION('center_axis',(0.,1.,0.));
#160=DIRECTION('ref_axis',(1.,0.,0.));
#161=DIRECTION('center_axis',(0.,-1.,0.));
#162=DIRECTION('ref_axis',(1.,0.,0.));
#163=DIRECTION('center_axis',(0.,1.,0.));
#164=DIRECTION('ref_axis',(0.,0.,1.));
#165=DIRECTION('center_axis',(0.,-1.,0.));
#166=DIRECTION('ref_axis',(0.999985956258314,0.,0.00529974396972082));
#167=DIRECTION('center_axis',(0.,-1.,0.));
#168=DIRECTION('ref_axis',(-0.0331491712707251,0.,-0.999450415200306));
#169=DIRECTION('center_axis',(0.,1.,0.));
#170=DIRECTION('ref_axis',(-1.,0.,0.));
#171=DIRECTION('center_axis',(0.,1.,0.));
#172=DIRECTION('ref_axis',(-1.,0.,0.));
#173=DIRECTION('center_axis',(0.,1.,0.));
#174=DIRECTION('ref_axis',(-1.,0.,0.));
#175=DIRECTION('center_axis',(0.,1.,0.));
#176=DIRECTION('ref_axis',(0.,0.,1.));
#177=DIRECTION('center_axis',(0.,-1.,0.));
#178=DIRECTION('ref_axis',(0.999985956258314,0.,0.00529974396972082));
#179=DIRECTION('center_axis',(0.,-1.,0.));
#180=DIRECTION('ref_axis',(-0.0331491712707251,0.,-0.999450415200306));
#181=DIRECTION('center_axis',(0.,1.,0.));
#182=DIRECTION('ref_axis',(-0.0331491712707251,0.,-0.999450415200306));
#183=DIRECTION('',(0.,1.,0.));
#184=DIRECTION('',(0.,1.,0.));
#185=DIRECTION('center_axis',(0.,1.,0.));
#186=DIRECTION('ref_axis',(0.999985956258314,0.,0.00529974396972082));
#187=DIRECTION('center_axis',(0.,1.,0.));
#188=DIRECTION('ref_axis',(0.,0.,1.));
#189=CARTESIAN_POINT('',(0.,0.,0.));
#190=CARTESIAN_POINT('Origin',(0.,11.,0.));
#191=CARTESIAN_POINT('',(-56.,11.,6.85802207522518E-15));
#192=CARTESIAN_POINT('Origin',(0.,11.,0.));
#193=CARTESIAN_POINT('',(-54.,13.,-6.61309271539571E-15));
#194=CARTESIAN_POINT('Origin',(0.,13.,0.));
#195=CARTESIAN_POINT('Origin',(0.,0.,0.));
#196=CARTESIAN_POINT('',(-56.,0.,6.85802207522518E-15));
#197=CARTESIAN_POINT('Origin',(0.,0.,0.));
#198=CARTESIAN_POINT('Origin',(2.68621236269763E-15,13.,0.));
#199=CARTESIAN_POINT('',(1.53314917127104,13.,46.2245817030142));
#200=CARTESIAN_POINT('',(-1.46685005732799,13.,46.2267330763198));
#201=CARTESIAN_POINT('Origin',(0.0331560293414192,13.,46.2346828361765));
#202=CARTESIAN_POINT('Origin',(0.,13.,0.));
#203=CARTESIAN_POINT('Origin',(0.,0.,0.));
#204=CARTESIAN_POINT('',(53.,11.,6.49062803548097E-15));
#205=CARTESIAN_POINT('Origin',(0.,11.,0.));
#206=CARTESIAN_POINT('',(53.,0.,6.49062803548097E-15));
#207=CARTESIAN_POINT('Origin',(0.,0.,0.));
#208=CARTESIAN_POINT('Origin',(-5.40885669623414E-16,11.,0.));
#209=CARTESIAN_POINT('',(1.53314917127104,11.,46.2245817030142));
#210=CARTESIAN_POINT('',(-1.46685005732799,11.,46.2267330763198));
#211=CARTESIAN_POINT('Origin',(0.0331560293414192,11.,46.2346828361765));
#212=CARTESIAN_POINT('Origin',(0.,11.,0.));
#213=CARTESIAN_POINT('Origin',(0.,0.,0.));
#214=CARTESIAN_POINT('',(1.53314917127104,0.,46.2245817030142));
#215=CARTESIAN_POINT('',(-1.46685005732799,0.,46.2267330763198));
#216=CARTESIAN_POINT('Origin',(0.0331560293414192,0.,46.2346828361765));
#217=CARTESIAN_POINT('Origin',(2.68621236269763E-15,0.,0.));
#218=UNCERTAINTY_MEASURE_WITH_UNIT(LENGTH_MEASURE(0.01),#222,
'DISTANCE_ACCURACY_VALUE',
'Maximum model space distance between geometric entities at asserted c
onnectivities');
#219=UNCERTAINTY_MEASURE_WITH_UNIT(LENGTH_MEASURE(0.01),#222,
'DISTANCE_ACCURACY_VALUE',
'Maximum model space distance between geometric entities at asserted c
onnectivities');
#220=(
GEOMETRIC_REPRESENTATION_CONTEXT(3)
GLOBAL_UNCERTAINTY_ASSIGNED_CONTEXT((#218))
GLOBAL_UNIT_ASSIGNED_CONTEXT((#222,#225,#224))
REPRESENTATION_CONTEXT('','3D')
);
#221=(
GEOMETRIC_REPRESENTATION_CONTEXT(3)
GLOBAL_UNCERTAINTY_ASSIGNED_CONTEXT((#219))
GLOBAL_UNIT_ASSIGNED_CONTEXT((#222,#225,#224))
REPRESENTATION_CONTEXT('','3D')
);
#222=(
LENGTH_UNIT()
NAMED_UNIT(*)
SI_UNIT(.MILLI.,.METRE.)
);
#223=(
LENGTH_UNIT()
NAMED_UNIT(*)
SI_UNIT(.CENTI.,.METRE.)
);
#224=(
NAMED_UNIT(*)
SI_UNIT($,.STERADIAN.)
SOLID_ANGLE_UNIT()
);
#225=(
NAMED_UNIT(*)
PLANE_ANGLE_UNIT()
SI_UNIT($,.RADIAN.)
);
#226=SHAPE_DEFINITION_REPRESENTATION(#227,#228);
#227=PRODUCT_DEFINITION_SHAPE('',$,#230);
#228=SHAPE_REPRESENTATION('',(#133),#220);
#229=PRODUCT_DEFINITION_CONTEXT('part definition',#234,'design');
#230=PRODUCT_DEFINITION('Deluxe_option2_CNC','P1_Deluxe_CNC',#231,#229);
#231=PRODUCT_DEFINITION_FORMATION('',$,#236);
#232=PRODUCT_RELATED_PRODUCT_CATEGORY('P1_Deluxe_CNC','P1_Deluxe_CNC',(#236));
#233=APPLICATION_PROTOCOL_DEFINITION('international standard',
'automotive_design',2009,#234);
#234=APPLICATION_CONTEXT(
'Core Data for Automotive Mechanical Design Process');
#235=PRODUCT_CONTEXT('part definition',#234,'mechanical');
#236=PRODUCT('Deluxe_option2_CNC','P1_Deluxe_CNC',$,(#235));
#237=PRESENTATION_STYLE_ASSIGNMENT((#238));
#238=SURFACE_STYLE_USAGE(.BOTH.,#239);
#239=SURFACE_SIDE_STYLE('',(#240));
#240=SURFACE_STYLE_FILL_AREA(#241);
#241=FILL_AREA_STYLE('',(#242));
#242=FILL_AREA_STYLE_COLOUR('',#243);
#243=COLOUR_RGB('',0.749019607843137,0.749019607843137,0.749019607843137);
ENDSEC;
END-ISO-10303-21;
