ISO-10303-21;
HEADER;
FILE_DESCRIPTION(('CATIA V5 STEP Exchange'),'2;1');

FILE_NAME('C:\\Users\\julie\\Desktop\\Usinage\\support_crochet.stp','2019-04-09T15:54:47+00:00',('none'),('none'),'CATIA Version 5 Release 19 GA (IN-10)','CATIA V5 STEP AP203','none');

FILE_SCHEMA(('CONFIG_CONTROL_DESIGN'));

ENDSEC;
/* file written by CATIA V5R19 */
DATA;
#5=PRODUCT('support_poigne','','',(#2)) ;
#1=APPLICATION_CONTEXT('configuration controlled 3D design of mechanical parts and assemblies') ;
#14=PRODUCT_DEFINITION('',' ',#6,#3) ;
#16=SECURITY_CLASSIFICATION(' ',' ',#15) ;
#15=SECURITY_CLASSIFICATION_LEVEL('unclassified') ;
#47=CARTESIAN_POINT(' ',(0.,0.,0.)) ;
#52=CARTESIAN_POINT('Axis2P3D Location',(-1.40463858218,6.25,0.)) ;
#57=CARTESIAN_POINT('Line Origine',(-1.40463858218,6.25,0.)) ;
#61=CARTESIAN_POINT('Vertex',(-1.40463858218,6.25,-10.)) ;
#63=CARTESIAN_POINT('Vertex',(-1.40463858218,6.25,10.)) ;
#66=CARTESIAN_POINT('Line Origine',(-1.40463858218,1.7763568394E-015,-10.)) ;
#70=CARTESIAN_POINT('Vertex',(-1.40463858218,-6.25,-10.)) ;
#73=CARTESIAN_POINT('Line Origine',(-1.40463858218,-6.25,0.)) ;
#77=CARTESIAN_POINT('Vertex',(-1.40463858218,-6.25,10.)) ;
#80=CARTESIAN_POINT('Line Origine',(-1.40463858218,1.7763568394E-015,10.)) ;
#92=CARTESIAN_POINT('Axis2P3D Location',(-1.40463858218,-6.25,0.)) ;
#97=CARTESIAN_POINT('Line Origine',(-0.0546385821751,-6.25,-10.)) ;
#101=CARTESIAN_POINT('Vertex',(1.29536141782,-6.25,-10.)) ;
#104=CARTESIAN_POINT('Line Origine',(1.29536141782,-6.25,0.)) ;
#108=CARTESIAN_POINT('Vertex',(1.29536141782,-6.25,10.)) ;
#111=CARTESIAN_POINT('Line Origine',(-0.0546385821751,-6.25,10.)) ;
#123=CARTESIAN_POINT('Axis2P3D Location',(-60.8913534013,-1.50435219837E-014,0.)) ;
#128=CARTESIAN_POINT('Axis2P3D Location',(-60.8913534013,-1.50435219837E-014,-10.)) ;
#132=CARTESIAN_POINT('Vertex',(1.29536141782,6.25,-10.)) ;
#135=CARTESIAN_POINT('Line Origine',(1.29536141782,6.25,0.)) ;
#139=CARTESIAN_POINT('Vertex',(1.29536141782,6.25,10.)) ;
#142=CARTESIAN_POINT('Axis2P3D Location',(-60.8913534013,-1.50435219837E-014,10.)) ;
#154=CARTESIAN_POINT('Axis2P3D Location',(1.29536141782,6.25,0.)) ;
#159=CARTESIAN_POINT('Line Origine',(-0.0546385821751,6.25,-10.)) ;
#164=CARTESIAN_POINT('Line Origine',(-0.0546385821751,6.25,10.)) ;
#176=CARTESIAN_POINT('Axis2P3D Location',(0.,0.,-10.)) ;
#188=CARTESIAN_POINT('Axis2P3D Location',(0.,0.,10.)) ;
#53=DIRECTION('Axis2P3D Direction',(-1.,-1.24344978758E-016,0.)) ;
#54=DIRECTION('Axis2P3D XDirection',(1.24344978758E-016,-1.,0.)) ;
#58=DIRECTION('Vector Direction',(0.,0.,1.)) ;
#67=DIRECTION('Vector Direction',(1.24344978758E-016,-1.,0.)) ;
#74=DIRECTION('Vector Direction',(0.,0.,1.)) ;
#81=DIRECTION('Vector Direction',(1.24344978758E-016,-1.,0.)) ;
#93=DIRECTION('Axis2P3D Direction',(0.,-1.,0.)) ;
#94=DIRECTION('Axis2P3D XDirection',(1.,0.,0.)) ;
#98=DIRECTION('Vector Direction',(1.,0.,0.)) ;
#105=DIRECTION('Vector Direction',(0.,0.,1.)) ;
#112=DIRECTION('Vector Direction',(1.,0.,0.)) ;
#124=DIRECTION('Axis2P3D Direction',(0.,0.,1.)) ;
#125=DIRECTION('Axis2P3D XDirection',(0.994987437107,-0.1,0.)) ;
#129=DIRECTION('Axis2P3D Direction',(0.,0.,1.)) ;
#136=DIRECTION('Vector Direction',(0.,0.,1.)) ;
#143=DIRECTION('Axis2P3D Direction',(0.,0.,1.)) ;
#155=DIRECTION('Axis2P3D Direction',(-3.28954970259E-016,1.,0.)) ;
#156=DIRECTION('Axis2P3D XDirection',(-1.,-3.28954970259E-016,0.)) ;
#160=DIRECTION('Vector Direction',(-1.,-3.28954970259E-016,0.)) ;
#165=DIRECTION('Vector Direction',(-1.,-3.28954970259E-016,0.)) ;
#177=DIRECTION('Axis2P3D Direction',(0.,0.,1.)) ;
#178=DIRECTION('Axis2P3D XDirection',(1.,0.,0.)) ;
#189=DIRECTION('Axis2P3D Direction',(0.,0.,1.)) ;
#190=DIRECTION('Axis2P3D XDirection',(1.,0.,0.)) ;
#48=AXIS2_PLACEMENT_3D(' ',#47,$,$) ;
#55=AXIS2_PLACEMENT_3D('Plane Axis2P3D',#52,#53,#54) ;
#95=AXIS2_PLACEMENT_3D('Plane Axis2P3D',#92,#93,#94) ;
#126=AXIS2_PLACEMENT_3D('Cylinder Axis2P3D',#123,#124,#125) ;
#130=AXIS2_PLACEMENT_3D('Circle Axis2P3D',#128,#129,$) ;
#144=AXIS2_PLACEMENT_3D('Circle Axis2P3D',#142,#143,$) ;
#157=AXIS2_PLACEMENT_3D('Plane Axis2P3D',#154,#155,#156) ;
#179=AXIS2_PLACEMENT_3D('Plane Axis2P3D',#176,#177,#178) ;
#191=AXIS2_PLACEMENT_3D('Plane Axis2P3D',#188,#189,#190) ;
#40=PRODUCT_DEFINITION_SHAPE(' ',' ',#14) ;
#31=APPROVAL_PERSON_ORGANIZATION(#25,#21,#19) ;
#25=PERSON_AND_ORGANIZATION(#22,#23) ;
#22=PERSON(' ',' ',' ',$,$,$) ;
#23=ORGANIZATION(' ',' ',' ') ;
#21=APPROVAL(#20,' ') ;
#20=APPROVAL_STATUS('not_yet_approved') ;
#19=APPROVAL_ROLE('APPROVER') ;
#13=DATE_AND_TIME(#11,#12) ;
#12=LOCAL_TIME(17,54,47.,#10) ;
#10=COORDINATED_UNIVERSAL_TIME_OFFSET(0,0,.AHEAD.) ;
#86=ORIENTED_EDGE('',*,*,#65,.F.) ;
#87=ORIENTED_EDGE('',*,*,#72,.T.) ;
#88=ORIENTED_EDGE('',*,*,#79,.T.) ;
#89=ORIENTED_EDGE('',*,*,#84,.F.) ;
#117=ORIENTED_EDGE('',*,*,#79,.F.) ;
#118=ORIENTED_EDGE('',*,*,#103,.T.) ;
#119=ORIENTED_EDGE('',*,*,#110,.T.) ;
#120=ORIENTED_EDGE('',*,*,#115,.F.) ;
#148=ORIENTED_EDGE('',*,*,#110,.F.) ;
#149=ORIENTED_EDGE('',*,*,#134,.T.) ;
#150=ORIENTED_EDGE('',*,*,#141,.T.) ;
#151=ORIENTED_EDGE('',*,*,#146,.F.) ;
#170=ORIENTED_EDGE('',*,*,#141,.F.) ;
#171=ORIENTED_EDGE('',*,*,#163,.T.) ;
#172=ORIENTED_EDGE('',*,*,#65,.T.) ;
#173=ORIENTED_EDGE('',*,*,#168,.F.) ;
#182=ORIENTED_EDGE('',*,*,#163,.F.) ;
#183=ORIENTED_EDGE('',*,*,#134,.F.) ;
#184=ORIENTED_EDGE('',*,*,#103,.F.) ;
#185=ORIENTED_EDGE('',*,*,#72,.F.) ;
#194=ORIENTED_EDGE('',*,*,#84,.T.) ;
#195=ORIENTED_EDGE('',*,*,#115,.T.) ;
#196=ORIENTED_EDGE('',*,*,#146,.T.) ;
#197=ORIENTED_EDGE('',*,*,#168,.T.) ;
#51=CLOSED_SHELL('Closed Shell',(#91,#122,#153,#175,#187,#199)) ;
#59=VECTOR('Line Direction',#58,1.) ;
#68=VECTOR('Line Direction',#67,1.) ;
#75=VECTOR('Line Direction',#74,1.) ;
#82=VECTOR('Line Direction',#81,1.) ;
#99=VECTOR('Line Direction',#98,1.) ;
#106=VECTOR('Line Direction',#105,1.) ;
#113=VECTOR('Line Direction',#112,1.) ;
#137=VECTOR('Line Direction',#136,1.) ;
#161=VECTOR('Line Direction',#160,1.) ;
#166=VECTOR('Line Direction',#165,1.) ;
#201=ADVANCED_BREP_SHAPE_REPRESENTATION('NONE',(#200),#46) ;
#49=SHAPE_REPRESENTATION(' ',(#48),#46) ;
#91=ADVANCED_FACE('Corps principal',(#90),#56,.T.) ;
#122=ADVANCED_FACE('Corps principal',(#121),#96,.T.) ;
#153=ADVANCED_FACE('Corps principal',(#152),#127,.T.) ;
#175=ADVANCED_FACE('Corps principal',(#174),#158,.T.) ;
#187=ADVANCED_FACE('Corps principal',(#186),#180,.F.) ;
#199=ADVANCED_FACE('Corps principal',(#198),#192,.T.) ;
#4=APPLICATION_PROTOCOL_DEFINITION('international standard','config_control_design',1994,#1) ;
#32=APPROVAL_DATE_TIME(#13,#21) ;
#200=MANIFOLD_SOLID_BREP('Corps principal',#51) ;
#11=CALENDAR_DATE(2019,9,4) ;
#30=CC_DESIGN_APPROVAL(#21,(#16,#6,#14)) ;
#18=CC_DESIGN_DATE_AND_TIME_ASSIGNMENT(#13,#17,(#16)) ;
#29=CC_DESIGN_DATE_AND_TIME_ASSIGNMENT(#13,#28,(#14)) ;
#17=DATE_TIME_ROLE('classification_date') ;
#28=DATE_TIME_ROLE('creation_date') ;
#27=CC_DESIGN_PERSON_AND_ORGANIZATION_ASSIGNMENT(#25,#26,(#16)) ;
#33=CC_DESIGN_PERSON_AND_ORGANIZATION_ASSIGNMENT(#25,#34,(#6)) ;
#35=CC_DESIGN_PERSON_AND_ORGANIZATION_ASSIGNMENT(#25,#36,(#6,#14)) ;
#37=CC_DESIGN_PERSON_AND_ORGANIZATION_ASSIGNMENT(#25,#38,(#5)) ;
#26=PERSON_AND_ORGANIZATION_ROLE('classification_officer') ;
#34=PERSON_AND_ORGANIZATION_ROLE('design_supplier') ;
#36=PERSON_AND_ORGANIZATION_ROLE('creator') ;
#38=PERSON_AND_ORGANIZATION_ROLE('design_owner') ;
#39=CC_DESIGN_SECURITY_CLASSIFICATION(#16,(#6)) ;
#131=CIRCLE('generated circle',#130,62.5) ;
#145=CIRCLE('generated circle',#144,62.5) ;
#202=SHAPE_REPRESENTATION_RELATIONSHIP(' ',' ',#49,#201) ;
#127=CYLINDRICAL_SURFACE('generated cylinder',#126,62.5) ;
#3=DESIGN_CONTEXT(' ',#1,'design') ;
#65=EDGE_CURVE('',#62,#64,#60,.T.) ;
#72=EDGE_CURVE('',#62,#71,#69,.T.) ;
#79=EDGE_CURVE('',#71,#78,#76,.T.) ;
#84=EDGE_CURVE('',#64,#78,#83,.T.) ;
#103=EDGE_CURVE('',#71,#102,#100,.T.) ;
#110=EDGE_CURVE('',#102,#109,#107,.T.) ;
#115=EDGE_CURVE('',#78,#109,#114,.T.) ;
#134=EDGE_CURVE('',#102,#133,#131,.T.) ;
#141=EDGE_CURVE('',#133,#140,#138,.T.) ;
#146=EDGE_CURVE('',#109,#140,#145,.T.) ;
#163=EDGE_CURVE('',#133,#62,#162,.T.) ;
#168=EDGE_CURVE('',#140,#64,#167,.T.) ;
#85=EDGE_LOOP('',(#86,#87,#88,#89)) ;
#116=EDGE_LOOP('',(#117,#118,#119,#120)) ;
#147=EDGE_LOOP('',(#148,#149,#150,#151)) ;
#169=EDGE_LOOP('',(#170,#171,#172,#173)) ;
#181=EDGE_LOOP('',(#182,#183,#184,#185)) ;
#193=EDGE_LOOP('',(#194,#195,#196,#197)) ;
#90=FACE_OUTER_BOUND('',#85,.T.) ;
#121=FACE_OUTER_BOUND('',#116,.T.) ;
#152=FACE_OUTER_BOUND('',#147,.T.) ;
#174=FACE_OUTER_BOUND('',#169,.T.) ;
#186=FACE_OUTER_BOUND('',#181,.T.) ;
#198=FACE_OUTER_BOUND('',#193,.T.) ;
#45=UNCERTAINTY_MEASURE_WITH_UNIT(LENGTH_MEASURE(0.005),#41,'distance_accuracy_value','CONFUSED CURVE UNCERTAINTY') ;
#60=LINE('Line',#57,#59) ;
#69=LINE('Line',#66,#68) ;
#76=LINE('Line',#73,#75) ;
#83=LINE('Line',#80,#82) ;
#100=LINE('Line',#97,#99) ;
#107=LINE('Line',#104,#106) ;
#114=LINE('Line',#111,#113) ;
#138=LINE('Line',#135,#137) ;
#162=LINE('Line',#159,#161) ;
#167=LINE('Line',#164,#166) ;
#2=MECHANICAL_CONTEXT(' ',#1,'mechanical') ;
#24=PERSONAL_ADDRESS(' ',' ',' ',' ',' ',' ',' ',' ',' ',' ',' ',' ',(#22),' ') ;
#56=PLANE('Plane',#55) ;
#96=PLANE('Plane',#95) ;
#158=PLANE('Plane',#157) ;
#180=PLANE('Plane',#179) ;
#192=PLANE('Plane',#191) ;
#43=PLANE_ANGLE_MEASURE_WITH_UNIT(PLANE_ANGLE_MEASURE(0.0174532925199),#42) ;
#7=PRODUCT_CATEGORY('part',$) ;
#9=PRODUCT_CATEGORY_RELATIONSHIP(' ',' ',#7,#8) ;
#6=PRODUCT_DEFINITION_FORMATION_WITH_SPECIFIED_SOURCE('',' ',#5,.NOT_KNOWN.) ;
#8=PRODUCT_RELATED_PRODUCT_CATEGORY('detail',$,(#5)) ;
#50=SHAPE_DEFINITION_REPRESENTATION(#40,#49) ;
#62=VERTEX_POINT('',#61) ;
#64=VERTEX_POINT('',#63) ;
#71=VERTEX_POINT('',#70) ;
#78=VERTEX_POINT('',#77) ;
#102=VERTEX_POINT('',#101) ;
#109=VERTEX_POINT('',#108) ;
#133=VERTEX_POINT('',#132) ;
#140=VERTEX_POINT('',#139) ;
#41=(LENGTH_UNIT()NAMED_UNIT(*)SI_UNIT(.MILLI.,.METRE.)) ;
#42=(NAMED_UNIT(*)PLANE_ANGLE_UNIT()SI_UNIT($,.RADIAN.)) ;
#44=(NAMED_UNIT(*)SI_UNIT($,.STERADIAN.)SOLID_ANGLE_UNIT()) ;
#46=(GEOMETRIC_REPRESENTATION_CONTEXT(3)GLOBAL_UNCERTAINTY_ASSIGNED_CONTEXT((#45))GLOBAL_UNIT_ASSIGNED_CONTEXT((#41,#42,#44))REPRESENTATION_CONTEXT(' ',' ')) ;
ENDSEC;
END-ISO-10303-21;
