ISO-10303-21;
HEADER;
FILE_DESCRIPTION(('CATIA V5 STEP Exchange'),'2;1');

FILE_NAME('C:\\Users\\julie\\Desktop\\Usinage\\Taquet.stp','2019-04-09T15:57:07+00:00',('none'),('none'),'CATIA Version 5 Release 19 GA (IN-10)','CATIA V5 STEP AP203','none');

FILE_SCHEMA(('CONFIG_CONTROL_DESIGN'));

ENDSEC;
/* file written by CATIA V5R19 */
DATA;
#5=PRODUCT('Taquet','','',(#2)) ;
#1=APPLICATION_CONTEXT('configuration controlled 3D design of mechanical parts and assemblies') ;
#14=PRODUCT_DEFINITION('',' ',#6,#3) ;
#16=SECURITY_CLASSIFICATION(' ',' ',#15) ;
#15=SECURITY_CLASSIFICATION_LEVEL('unclassified') ;
#47=CARTESIAN_POINT(' ',(0.,0.,0.)) ;
#52=CARTESIAN_POINT('Axis2P3D Location',(10.,5.03044017777,-10.5)) ;
#57=CARTESIAN_POINT('Line Origine',(8.5,5.03044017777,-10.5)) ;
#61=CARTESIAN_POINT('Vertex',(8.5,2.78718401099,-10.5)) ;
#63=CARTESIAN_POINT('Vertex',(8.5,4.16333634234E-017,-10.5)) ;
#66=CARTESIAN_POINT('Axis2P3D Location',(10.,0.,-10.5)) ;
#70=CARTESIAN_POINT('Vertex',(11.5,-4.16333634234E-017,-10.5)) ;
#73=CARTESIAN_POINT('Line Origine',(11.5,5.03044017777,-10.5)) ;
#77=CARTESIAN_POINT('Vertex',(11.5,2.78718401099,-10.5)) ;
#81=CARTESIAN_POINT('Control Point',(8.5,2.78718401099,-10.5)) ;
#82=CARTESIAN_POINT('Control Point',(8.5,2.78718401099,-10.8838340733)) ;
#83=CARTESIAN_POINT('Control Point',(8.62277382987,2.79013143188,-11.267668145)) ;
#84=CARTESIAN_POINT('Control Point',(8.86909374573,2.79617148597,-11.5986725884)) ;
#85=CARTESIAN_POINT('Control Point',(9.3681872757,2.80367221394,-11.9408171621)) ;
#86=CARTESIAN_POINT('Control Point',(9.94683914389,2.80562516078,-12.0178075579)) ;
#87=CARTESIAN_POINT('Control Point',(10.1427170523,2.80547839937,-12.0120175247)) ;
#88=CARTESIAN_POINT('Control Point',(10.6981811791,2.80279897948,-11.9043995252)) ;
#89=CARTESIAN_POINT('Control Point',(11.1643228856,2.79534943887,-11.5525409431)) ;
#90=CARTESIAN_POINT('Control Point',(11.3883049006,2.78986546574,-11.2322134079)) ;
#91=CARTESIAN_POINT('Control Point',(11.5,2.78718401099,-10.8661067047)) ;
#92=CARTESIAN_POINT('Control Point',(11.5,2.78718401099,-10.5)) ;
#101=CARTESIAN_POINT('Axis2P3D Location',(0.,0.,0.)) ;
#106=CARTESIAN_POINT('Line Origine',(0.,0.,0.)) ;
#110=CARTESIAN_POINT('Vertex',(0.,0.,-20.)) ;
#112=CARTESIAN_POINT('Vertex',(0.,0.,20.)) ;
#115=CARTESIAN_POINT('Line Origine',(10.,0.,-20.)) ;
#119=CARTESIAN_POINT('Vertex',(20.,0.,-20.)) ;
#122=CARTESIAN_POINT('Line Origine',(20.,0.,0.)) ;
#126=CARTESIAN_POINT('Vertex',(20.,0.,20.)) ;
#129=CARTESIAN_POINT('Line Origine',(10.,0.,20.)) ;
#140=CARTESIAN_POINT('Axis2P3D Location',(10.,0.,-10.5)) ;
#149=CARTESIAN_POINT('Axis2P3D Location',(10.,0.,10.5)) ;
#153=CARTESIAN_POINT('Vertex',(11.5,-4.16333634234E-017,10.5)) ;
#155=CARTESIAN_POINT('Vertex',(8.5,4.16333634234E-017,10.5)) ;
#158=CARTESIAN_POINT('Axis2P3D Location',(10.,0.,10.5)) ;
#168=CARTESIAN_POINT('Axis2P3D Location',(0.,0.,-20.)) ;
#173=CARTESIAN_POINT('Line Origine',(0.,1.,-20.)) ;
#177=CARTESIAN_POINT('Vertex',(-5.3290705182E-015,2.,-20.)) ;
#180=CARTESIAN_POINT('Axis2P3D Location',(10.,-59.6948133963,-20.)) ;
#184=CARTESIAN_POINT('Vertex',(20.,2.,-20.)) ;
#187=CARTESIAN_POINT('Line Origine',(20.,1.,-20.)) ;
#199=CARTESIAN_POINT('Axis2P3D Location',(20.,0.,0.)) ;
#204=CARTESIAN_POINT('Line Origine',(20.,2.,0.)) ;
#208=CARTESIAN_POINT('Vertex',(20.,2.,20.)) ;
#211=CARTESIAN_POINT('Line Origine',(20.,1.,20.)) ;
#223=CARTESIAN_POINT('Axis2P3D Location',(10.,5.03044017777,10.5)) ;
#228=CARTESIAN_POINT('Line Origine',(8.5,5.03044017777,10.5)) ;
#232=CARTESIAN_POINT('Vertex',(8.5,2.78718401099,10.5)) ;
#235=CARTESIAN_POINT('Line Origine',(11.5,5.03044017777,10.5)) ;
#239=CARTESIAN_POINT('Vertex',(11.5,2.78718401099,10.5)) ;
#243=CARTESIAN_POINT('Control Point',(8.5,2.78718401099,10.5)) ;
#244=CARTESIAN_POINT('Control Point',(8.5,2.78718401099,10.1161659266)) ;
#245=CARTESIAN_POINT('Control Point',(8.62277382991,2.79013143188,9.73233185489)) ;
#246=CARTESIAN_POINT('Control Point',(8.86909374561,2.79617148597,9.4013274117)) ;
#247=CARTESIAN_POINT('Control Point',(9.36818727564,2.80367221393,9.05918283787)) ;
#248=CARTESIAN_POINT('Control Point',(9.9468391439,2.80562516078,8.98219244207)) ;
#249=CARTESIAN_POINT('Control Point',(10.1427170523,2.80547839937,8.98798247533)) ;
#250=CARTESIAN_POINT('Control Point',(10.698181179,2.80279897948,9.0956004748)) ;
#251=CARTESIAN_POINT('Control Point',(11.1643228856,2.79534943887,9.44745905685)) ;
#252=CARTESIAN_POINT('Control Point',(11.3883049006,2.78986546574,9.76778659209)) ;
#253=CARTESIAN_POINT('Control Point',(11.5,2.78718401099,10.1338932953)) ;
#254=CARTESIAN_POINT('Control Point',(11.5,2.78718401099,10.5)) ;
#264=CARTESIAN_POINT('Control Point',(11.5,2.78718401099,10.5)) ;
#265=CARTESIAN_POINT('Control Point',(11.5,2.78718401099,10.8838340733)) ;
#266=CARTESIAN_POINT('Control Point',(11.3772261701,2.79013143188,11.267668145)) ;
#267=CARTESIAN_POINT('Control Point',(11.1309062543,2.79617148597,11.5986725884)) ;
#268=CARTESIAN_POINT('Control Point',(10.6318127243,2.80367221393,11.9408171621)) ;
#269=CARTESIAN_POINT('Control Point',(10.0531608561,2.80562516078,12.0178075579)) ;
#270=CARTESIAN_POINT('Control Point',(9.85728294773,2.80547839937,12.0120175247)) ;
#271=CARTESIAN_POINT('Control Point',(9.30181882091,2.80279897948,11.9043995252)) ;
#272=CARTESIAN_POINT('Control Point',(8.83567711434,2.79534943887,11.5525409431)) ;
#273=CARTESIAN_POINT('Control Point',(8.61169509939,2.78986546574,11.232213408)) ;
#274=CARTESIAN_POINT('Control Point',(8.5,2.78718401099,10.8661067048)) ;
#275=CARTESIAN_POINT('Control Point',(8.5,2.78718401099,10.5)) ;
#284=CARTESIAN_POINT('Axis2P3D Location',(0.,0.,20.)) ;
#289=CARTESIAN_POINT('Axis2P3D Location',(10.,-59.6948133963,20.)) ;
#293=CARTESIAN_POINT('Vertex',(-5.3290705182E-015,2.,20.)) ;
#296=CARTESIAN_POINT('Line Origine',(0.,1.,20.)) ;
#308=CARTESIAN_POINT('Axis2P3D Location',(0.,0.,0.)) ;
#313=CARTESIAN_POINT('Line Origine',(0.,2.,0.)) ;
#326=CARTESIAN_POINT('Control Point',(11.5,2.78718401099,-10.5)) ;
#327=CARTESIAN_POINT('Control Point',(11.5,2.78718401099,-10.1161659267)) ;
#328=CARTESIAN_POINT('Control Point',(11.3772261701,2.79013143188,-9.73233185502)) ;
#329=CARTESIAN_POINT('Control Point',(11.1309062543,2.79617148597,-9.40132741163)) ;
#330=CARTESIAN_POINT('Control Point',(10.6318127243,2.80367221393,-9.05918283786)) ;
#331=CARTESIAN_POINT('Control Point',(10.0531608561,2.80562516078,-8.98219244207)) ;
#332=CARTESIAN_POINT('Control Point',(9.85728294774,2.80547839937,-8.98798247533)) ;
#333=CARTESIAN_POINT('Control Point',(9.30181882093,2.80279897948,-9.09560047481)) ;
#334=CARTESIAN_POINT('Control Point',(8.83567711437,2.79534943887,-9.44745905689)) ;
#335=CARTESIAN_POINT('Control Point',(8.61169509938,2.78986546574,-9.76778659203)) ;
#336=CARTESIAN_POINT('Control Point',(8.5,2.78718401099,-10.1338932953)) ;
#337=CARTESIAN_POINT('Control Point',(8.5,2.78718401099,-10.5)) ;
#346=CARTESIAN_POINT('Axis2P3D Location',(10.,-59.6948133963,0.)) ;
#53=DIRECTION('Axis2P3D Direction',(-2.77555756156E-017,-1.,0.)) ;
#54=DIRECTION('Axis2P3D XDirection',(1.,-2.77555756156E-017,2.77555756156E-017)) ;
#58=DIRECTION('Vector Direction',(0.,-1.,0.)) ;
#67=DIRECTION('Axis2P3D Direction',(-2.77555756156E-017,-1.,0.)) ;
#74=DIRECTION('Vector Direction',(0.,-1.,0.)) ;
#102=DIRECTION('Axis2P3D Direction',(0.,-1.,0.)) ;
#103=DIRECTION('Axis2P3D XDirection',(1.,0.,0.)) ;
#107=DIRECTION('Vector Direction',(0.,0.,1.)) ;
#116=DIRECTION('Vector Direction',(1.,0.,0.)) ;
#123=DIRECTION('Vector Direction',(0.,0.,1.)) ;
#130=DIRECTION('Vector Direction',(1.,0.,0.)) ;
#141=DIRECTION('Axis2P3D Direction',(0.,-1.,0.)) ;
#150=DIRECTION('Axis2P3D Direction',(0.,-1.,0.)) ;
#159=DIRECTION('Axis2P3D Direction',(0.,-1.,0.)) ;
#169=DIRECTION('Axis2P3D Direction',(0.,0.,1.)) ;
#170=DIRECTION('Axis2P3D XDirection',(1.,0.,0.)) ;
#174=DIRECTION('Vector Direction',(0.,1.,0.)) ;
#181=DIRECTION('Axis2P3D Direction',(0.,0.,1.)) ;
#188=DIRECTION('Vector Direction',(0.,1.,0.)) ;
#200=DIRECTION('Axis2P3D Direction',(1.,0.,0.)) ;
#201=DIRECTION('Axis2P3D XDirection',(0.,1.,0.)) ;
#205=DIRECTION('Vector Direction',(0.,0.,1.)) ;
#212=DIRECTION('Vector Direction',(0.,1.,0.)) ;
#224=DIRECTION('Axis2P3D Direction',(-2.77555756156E-017,-1.,0.)) ;
#225=DIRECTION('Axis2P3D XDirection',(1.,-2.77555756156E-017,2.77555756156E-017)) ;
#229=DIRECTION('Vector Direction',(0.,-1.,0.)) ;
#236=DIRECTION('Vector Direction',(0.,-1.,0.)) ;
#285=DIRECTION('Axis2P3D Direction',(0.,0.,1.)) ;
#286=DIRECTION('Axis2P3D XDirection',(1.,0.,0.)) ;
#290=DIRECTION('Axis2P3D Direction',(0.,0.,1.)) ;
#297=DIRECTION('Vector Direction',(0.,1.,0.)) ;
#309=DIRECTION('Axis2P3D Direction',(1.,0.,0.)) ;
#310=DIRECTION('Axis2P3D XDirection',(0.,1.,0.)) ;
#314=DIRECTION('Vector Direction',(0.,0.,1.)) ;
#347=DIRECTION('Axis2P3D Direction',(0.,0.,1.)) ;
#348=DIRECTION('Axis2P3D XDirection',(0.16,0.98711701434,0.)) ;
#48=AXIS2_PLACEMENT_3D(' ',#47,$,$) ;
#55=AXIS2_PLACEMENT_3D('Cylinder Axis2P3D',#52,#53,#54) ;
#68=AXIS2_PLACEMENT_3D('Circle Axis2P3D',#66,#67,$) ;
#104=AXIS2_PLACEMENT_3D('Plane Axis2P3D',#101,#102,#103) ;
#142=AXIS2_PLACEMENT_3D('Circle Axis2P3D',#140,#141,$) ;
#151=AXIS2_PLACEMENT_3D('Circle Axis2P3D',#149,#150,$) ;
#160=AXIS2_PLACEMENT_3D('Circle Axis2P3D',#158,#159,$) ;
#171=AXIS2_PLACEMENT_3D('Plane Axis2P3D',#168,#169,#170) ;
#182=AXIS2_PLACEMENT_3D('Circle Axis2P3D',#180,#181,$) ;
#202=AXIS2_PLACEMENT_3D('Plane Axis2P3D',#199,#200,#201) ;
#226=AXIS2_PLACEMENT_3D('Cylinder Axis2P3D',#223,#224,#225) ;
#287=AXIS2_PLACEMENT_3D('Plane Axis2P3D',#284,#285,#286) ;
#291=AXIS2_PLACEMENT_3D('Circle Axis2P3D',#289,#290,$) ;
#311=AXIS2_PLACEMENT_3D('Plane Axis2P3D',#308,#309,#310) ;
#349=AXIS2_PLACEMENT_3D('Cylinder Axis2P3D',#346,#347,#348) ;
#40=PRODUCT_DEFINITION_SHAPE(' ',' ',#14) ;
#31=APPROVAL_PERSON_ORGANIZATION(#25,#21,#19) ;
#25=PERSON_AND_ORGANIZATION(#22,#23) ;
#22=PERSON(' ',' ',' ',$,$,$) ;
#23=ORGANIZATION(' ',' ',' ') ;
#21=APPROVAL(#20,' ') ;
#20=APPROVAL_STATUS('not_yet_approved') ;
#19=APPROVAL_ROLE('APPROVER') ;
#13=DATE_AND_TIME(#11,#12) ;
#12=LOCAL_TIME(17,57,7.,#10) ;
#10=COORDINATED_UNIVERSAL_TIME_OFFSET(0,0,.AHEAD.) ;
#95=ORIENTED_EDGE('',*,*,#65,.T.) ;
#96=ORIENTED_EDGE('',*,*,#72,.T.) ;
#97=ORIENTED_EDGE('',*,*,#79,.F.) ;
#98=ORIENTED_EDGE('',*,*,#93,.F.) ;
#135=ORIENTED_EDGE('',*,*,#114,.F.) ;
#136=ORIENTED_EDGE('',*,*,#121,.T.) ;
#137=ORIENTED_EDGE('',*,*,#128,.T.) ;
#138=ORIENTED_EDGE('',*,*,#133,.F.) ;
#146=ORIENTED_EDGE('',*,*,#144,.F.) ;
#147=ORIENTED_EDGE('',*,*,#72,.F.) ;
#164=ORIENTED_EDGE('',*,*,#157,.F.) ;
#165=ORIENTED_EDGE('',*,*,#162,.F.) ;
#193=ORIENTED_EDGE('',*,*,#179,.F.) ;
#194=ORIENTED_EDGE('',*,*,#186,.F.) ;
#195=ORIENTED_EDGE('',*,*,#191,.F.) ;
#196=ORIENTED_EDGE('',*,*,#121,.F.) ;
#217=ORIENTED_EDGE('',*,*,#128,.F.) ;
#218=ORIENTED_EDGE('',*,*,#191,.T.) ;
#219=ORIENTED_EDGE('',*,*,#210,.T.) ;
#220=ORIENTED_EDGE('',*,*,#215,.F.) ;
#257=ORIENTED_EDGE('',*,*,#234,.T.) ;
#258=ORIENTED_EDGE('',*,*,#162,.T.) ;
#259=ORIENTED_EDGE('',*,*,#241,.F.) ;
#260=ORIENTED_EDGE('',*,*,#255,.F.) ;
#278=ORIENTED_EDGE('',*,*,#241,.T.) ;
#279=ORIENTED_EDGE('',*,*,#157,.T.) ;
#280=ORIENTED_EDGE('',*,*,#234,.F.) ;
#281=ORIENTED_EDGE('',*,*,#276,.F.) ;
#302=ORIENTED_EDGE('',*,*,#133,.T.) ;
#303=ORIENTED_EDGE('',*,*,#215,.T.) ;
#304=ORIENTED_EDGE('',*,*,#295,.T.) ;
#305=ORIENTED_EDGE('',*,*,#300,.T.) ;
#319=ORIENTED_EDGE('',*,*,#317,.F.) ;
#320=ORIENTED_EDGE('',*,*,#179,.T.) ;
#321=ORIENTED_EDGE('',*,*,#114,.T.) ;
#322=ORIENTED_EDGE('',*,*,#300,.F.) ;
#340=ORIENTED_EDGE('',*,*,#79,.T.) ;
#341=ORIENTED_EDGE('',*,*,#144,.T.) ;
#342=ORIENTED_EDGE('',*,*,#65,.F.) ;
#343=ORIENTED_EDGE('',*,*,#338,.F.) ;
#352=ORIENTED_EDGE('',*,*,#210,.F.) ;
#353=ORIENTED_EDGE('',*,*,#186,.T.) ;
#354=ORIENTED_EDGE('',*,*,#317,.T.) ;
#355=ORIENTED_EDGE('',*,*,#295,.F.) ;
#358=ORIENTED_EDGE('',*,*,#93,.T.) ;
#359=ORIENTED_EDGE('',*,*,#338,.T.) ;
#362=ORIENTED_EDGE('',*,*,#255,.T.) ;
#363=ORIENTED_EDGE('',*,*,#276,.T.) ;
#148=FACE_BOUND('',#145,.T.) ;
#166=FACE_BOUND('',#163,.T.) ;
#360=FACE_BOUND('',#357,.T.) ;
#364=FACE_BOUND('',#361,.T.) ;
#51=CLOSED_SHELL('Closed Shell',(#100,#167,#198,#222,#262,#283,#307,#324,#345,#365)) ;
#59=VECTOR('Line Direction',#58,1.) ;
#75=VECTOR('Line Direction',#74,1.) ;
#108=VECTOR('Line Direction',#107,1.) ;
#117=VECTOR('Line Direction',#116,1.) ;
#124=VECTOR('Line Direction',#123,1.) ;
#131=VECTOR('Line Direction',#130,1.) ;
#175=VECTOR('Line Direction',#174,1.) ;
#189=VECTOR('Line Direction',#188,1.) ;
#206=VECTOR('Line Direction',#205,1.) ;
#213=VECTOR('Line Direction',#212,1.) ;
#230=VECTOR('Line Direction',#229,1.) ;
#237=VECTOR('Line Direction',#236,1.) ;
#298=VECTOR('Line Direction',#297,1.) ;
#315=VECTOR('Line Direction',#314,1.) ;
#367=ADVANCED_BREP_SHAPE_REPRESENTATION('NONE',(#366),#46) ;
#49=SHAPE_REPRESENTATION(' ',(#48),#46) ;
#100=ADVANCED_FACE('Corps principal',(#99),#56,.F.) ;
#167=ADVANCED_FACE('Corps principal',(#139,#148,#166),#105,.T.) ;
#198=ADVANCED_FACE('Corps principal',(#197),#172,.F.) ;
#222=ADVANCED_FACE('Corps principal',(#221),#203,.T.) ;
#262=ADVANCED_FACE('Corps principal',(#261),#227,.F.) ;
#283=ADVANCED_FACE('Corps principal',(#282),#227,.F.) ;
#307=ADVANCED_FACE('Corps principal',(#306),#288,.T.) ;
#324=ADVANCED_FACE('Corps principal',(#323),#312,.F.) ;
#345=ADVANCED_FACE('Corps principal',(#344),#56,.F.) ;
#365=ADVANCED_FACE('Corps principal',(#356,#360,#364),#350,.T.) ;
#4=APPLICATION_PROTOCOL_DEFINITION('international standard','config_control_design',1994,#1) ;
#32=APPROVAL_DATE_TIME(#13,#21) ;
#80=B_SPLINE_CURVE_WITH_KNOTS('',5,(#81,#82,#83,#84,#85,#86,#87,#88,#89,#90,#91,#92),.UNSPECIFIED.,.F.,.U.,(6,3,3,6),(0.,2.71411676097,4.07561994497,6.6643852805),.UNSPECIFIED.) ;
#242=B_SPLINE_CURVE_WITH_KNOTS('',5,(#243,#244,#245,#246,#247,#248,#249,#250,#251,#252,#253,#254),.UNSPECIFIED.,.F.,.U.,(6,3,3,6),(0.,2.71411676142,4.07561994545,6.66438528084),.UNSPECIFIED.) ;
#263=B_SPLINE_CURVE_WITH_KNOTS('',5,(#264,#265,#266,#267,#268,#269,#270,#271,#272,#273,#274,#275),.UNSPECIFIED.,.F.,.U.,(6,3,3,6),(0.,2.71411676109,4.07561994512,6.66438528088),.UNSPECIFIED.) ;
#325=B_SPLINE_CURVE_WITH_KNOTS('',5,(#326,#327,#328,#329,#330,#331,#332,#333,#334,#335,#336,#337),.UNSPECIFIED.,.F.,.U.,(6,3,3,6),(0.,2.71411676099,4.07561994502,6.66438528063),.UNSPECIFIED.) ;
#366=MANIFOLD_SOLID_BREP('Corps principal',#51) ;
#11=CALENDAR_DATE(2019,9,4) ;
#30=CC_DESIGN_APPROVAL(#21,(#16,#6,#14)) ;
#18=CC_DESIGN_DATE_AND_TIME_ASSIGNMENT(#13,#17,(#16)) ;
#29=CC_DESIGN_DATE_AND_TIME_ASSIGNMENT(#13,#28,(#14)) ;
#17=DATE_TIME_ROLE('classification_date') ;
#28=DATE_TIME_ROLE('creation_date') ;
#27=CC_DESIGN_PERSON_AND_ORGANIZATION_ASSIGNMENT(#25,#26,(#16)) ;
#33=CC_DESIGN_PERSON_AND_ORGANIZATION_ASSIGNMENT(#25,#34,(#6)) ;
#35=CC_DESIGN_PERSON_AND_ORGANIZATION_ASSIGNMENT(#25,#36,(#6,#14)) ;
#37=CC_DESIGN_PERSON_AND_ORGANIZATION_ASSIGNMENT(#25,#38,(#5)) ;
#26=PERSON_AND_ORGANIZATION_ROLE('classification_officer') ;
#34=PERSON_AND_ORGANIZATION_ROLE('design_supplier') ;
#36=PERSON_AND_ORGANIZATION_ROLE('creator') ;
#38=PERSON_AND_ORGANIZATION_ROLE('design_owner') ;
#39=CC_DESIGN_SECURITY_CLASSIFICATION(#16,(#6)) ;
#69=CIRCLE('generated circle',#68,1.5) ;
#143=CIRCLE('generated circle',#142,1.5) ;
#152=CIRCLE('generated circle',#151,1.5) ;
#161=CIRCLE('generated circle',#160,1.5) ;
#183=CIRCLE('generated circle',#182,62.5) ;
#292=CIRCLE('generated circle',#291,62.5) ;
#368=SHAPE_REPRESENTATION_RELATIONSHIP(' ',' ',#49,#367) ;
#56=CYLINDRICAL_SURFACE('generated cylinder',#55,1.5) ;
#227=CYLINDRICAL_SURFACE('generated cylinder',#226,1.5) ;
#350=CYLINDRICAL_SURFACE('generated cylinder',#349,62.5) ;
#3=DESIGN_CONTEXT(' ',#1,'design') ;
#65=EDGE_CURVE('',#62,#64,#60,.T.) ;
#72=EDGE_CURVE('',#64,#71,#69,.T.) ;
#79=EDGE_CURVE('',#78,#71,#76,.T.) ;
#93=EDGE_CURVE('',#62,#78,#80,.T.) ;
#114=EDGE_CURVE('',#111,#113,#109,.T.) ;
#121=EDGE_CURVE('',#111,#120,#118,.T.) ;
#128=EDGE_CURVE('',#120,#127,#125,.T.) ;
#133=EDGE_CURVE('',#113,#127,#132,.T.) ;
#144=EDGE_CURVE('',#71,#64,#143,.T.) ;
#157=EDGE_CURVE('',#154,#156,#152,.T.) ;
#162=EDGE_CURVE('',#156,#154,#161,.T.) ;
#179=EDGE_CURVE('',#178,#111,#176,.F.) ;
#186=EDGE_CURVE('',#185,#178,#183,.T.) ;
#191=EDGE_CURVE('',#120,#185,#190,.T.) ;
#210=EDGE_CURVE('',#185,#209,#207,.T.) ;
#215=EDGE_CURVE('',#127,#209,#214,.T.) ;
#234=EDGE_CURVE('',#233,#156,#231,.T.) ;
#241=EDGE_CURVE('',#240,#154,#238,.T.) ;
#255=EDGE_CURVE('',#233,#240,#242,.T.) ;
#276=EDGE_CURVE('',#240,#233,#263,.T.) ;
#295=EDGE_CURVE('',#209,#294,#292,.T.) ;
#300=EDGE_CURVE('',#294,#113,#299,.F.) ;
#317=EDGE_CURVE('',#178,#294,#316,.T.) ;
#338=EDGE_CURVE('',#78,#62,#325,.T.) ;
#94=EDGE_LOOP('',(#95,#96,#97,#98)) ;
#134=EDGE_LOOP('',(#135,#136,#137,#138)) ;
#145=EDGE_LOOP('',(#146,#147)) ;
#163=EDGE_LOOP('',(#164,#165)) ;
#192=EDGE_LOOP('',(#193,#194,#195,#196)) ;
#216=EDGE_LOOP('',(#217,#218,#219,#220)) ;
#256=EDGE_LOOP('',(#257,#258,#259,#260)) ;
#277=EDGE_LOOP('',(#278,#279,#280,#281)) ;
#301=EDGE_LOOP('',(#302,#303,#304,#305)) ;
#318=EDGE_LOOP('',(#319,#320,#321,#322)) ;
#339=EDGE_LOOP('',(#340,#341,#342,#343)) ;
#351=EDGE_LOOP('',(#352,#353,#354,#355)) ;
#357=EDGE_LOOP('',(#358,#359)) ;
#361=EDGE_LOOP('',(#362,#363)) ;
#99=FACE_OUTER_BOUND('',#94,.T.) ;
#139=FACE_OUTER_BOUND('',#134,.T.) ;
#197=FACE_OUTER_BOUND('',#192,.T.) ;
#221=FACE_OUTER_BOUND('',#216,.T.) ;
#261=FACE_OUTER_BOUND('',#256,.T.) ;
#282=FACE_OUTER_BOUND('',#277,.T.) ;
#306=FACE_OUTER_BOUND('',#301,.T.) ;
#323=FACE_OUTER_BOUND('',#318,.T.) ;
#344=FACE_OUTER_BOUND('',#339,.T.) ;
#356=FACE_OUTER_BOUND('',#351,.T.) ;
#45=UNCERTAINTY_MEASURE_WITH_UNIT(LENGTH_MEASURE(0.005),#41,'distance_accuracy_value','CONFUSED CURVE UNCERTAINTY') ;
#60=LINE('Line',#57,#59) ;
#76=LINE('Line',#73,#75) ;
#109=LINE('Line',#106,#108) ;
#118=LINE('Line',#115,#117) ;
#125=LINE('Line',#122,#124) ;
#132=LINE('Line',#129,#131) ;
#176=LINE('Line',#173,#175) ;
#190=LINE('Line',#187,#189) ;
#207=LINE('Line',#204,#206) ;
#214=LINE('Line',#211,#213) ;
#231=LINE('Line',#228,#230) ;
#238=LINE('Line',#235,#237) ;
#299=LINE('Line',#296,#298) ;
#316=LINE('Line',#313,#315) ;
#2=MECHANICAL_CONTEXT(' ',#1,'mechanical') ;
#24=PERSONAL_ADDRESS(' ',' ',' ',' ',' ',' ',' ',' ',' ',' ',' ',' ',(#22),' ') ;
#105=PLANE('Plane',#104) ;
#172=PLANE('Plane',#171) ;
#203=PLANE('Plane',#202) ;
#288=PLANE('Plane',#287) ;
#312=PLANE('Plane',#311) ;
#43=PLANE_ANGLE_MEASURE_WITH_UNIT(PLANE_ANGLE_MEASURE(0.0174532925199),#42) ;
#7=PRODUCT_CATEGORY('part',$) ;
#9=PRODUCT_CATEGORY_RELATIONSHIP(' ',' ',#7,#8) ;
#6=PRODUCT_DEFINITION_FORMATION_WITH_SPECIFIED_SOURCE('',' ',#5,.NOT_KNOWN.) ;
#8=PRODUCT_RELATED_PRODUCT_CATEGORY('detail',$,(#5)) ;
#50=SHAPE_DEFINITION_REPRESENTATION(#40,#49) ;
#62=VERTEX_POINT('',#61) ;
#64=VERTEX_POINT('',#63) ;
#71=VERTEX_POINT('',#70) ;
#78=VERTEX_POINT('',#77) ;
#111=VERTEX_POINT('',#110) ;
#113=VERTEX_POINT('',#112) ;
#120=VERTEX_POINT('',#119) ;
#127=VERTEX_POINT('',#126) ;
#154=VERTEX_POINT('',#153) ;
#156=VERTEX_POINT('',#155) ;
#178=VERTEX_POINT('',#177) ;
#185=VERTEX_POINT('',#184) ;
#209=VERTEX_POINT('',#208) ;
#233=VERTEX_POINT('',#232) ;
#240=VERTEX_POINT('',#239) ;
#294=VERTEX_POINT('',#293) ;
#41=(LENGTH_UNIT()NAMED_UNIT(*)SI_UNIT(.MILLI.,.METRE.)) ;
#42=(NAMED_UNIT(*)PLANE_ANGLE_UNIT()SI_UNIT($,.RADIAN.)) ;
#44=(NAMED_UNIT(*)SI_UNIT($,.STERADIAN.)SOLID_ANGLE_UNIT()) ;
#46=(GEOMETRIC_REPRESENTATION_CONTEXT(3)GLOBAL_UNCERTAINTY_ASSIGNED_CONTEXT((#45))GLOBAL_UNIT_ASSIGNED_CONTEXT((#41,#42,#44))REPRESENTATION_CONTEXT(' ',' ')) ;
ENDSEC;
END-ISO-10303-21;
