ISO-10303-21;
HEADER;
FILE_DESCRIPTION (( 'STEP AP214' ),
    '1' );
FILE_NAME ('Rondelle droite adaptation pressfit 92.STEP',
    '2019-04-15T20:05:31',
    ( '' ),
    ( '' ),
    'SwSTEP 2.0',
    'SolidWorks 2018',
    '' );
FILE_SCHEMA (( 'AUTOMOTIVE_DESIGN' ));
ENDSEC;

DATA;
#1 = AXIS2_PLACEMENT_3D ( 'NONE', #43, #241, #235 ) ;
#2 = ADVANCED_FACE ( 'NONE', ( #166 ), #57, .F. ) ;
#3 = CARTESIAN_POINT ( 'NONE',  ( 17.22735026918962120, 0.0000000000000000000, 13.50000000000000000 ) ) ;
#4 = EDGE_CURVE ( 'NONE', #147, #66, #115, .T. ) ;
#5 = ORIENTED_EDGE ( 'NONE', *, *, #139, .F. ) ;
#6 = PRODUCT_RELATED_PRODUCT_CATEGORY ( 'part', '', ( #63 ) ) ;
#7 =( GEOMETRIC_REPRESENTATION_CONTEXT ( 3 ) GLOBAL_UNCERTAINTY_ASSIGNED_CONTEXT ( ( #87 ) ) GLOBAL_UNIT_ASSIGNED_CONTEXT ( ( #156, #249, #135 ) ) REPRESENTATION_CONTEXT ( 'NONE', 'WORKASPACE' ) );
#8 = CARTESIAN_POINT ( 'NONE',  ( 0.0000000000000000000, 0.0000000000000000000, 0.0000000000000000000 ) ) ;
#9 = DIRECTION ( 'NONE',  ( -0.0000000000000000000, -0.0000000000000000000, 1.000000000000000000 ) ) ;
#10 = ORIENTED_EDGE ( 'NONE', *, *, #105, .F. ) ;
#11 = FACE_OUTER_BOUND ( 'NONE', #236, .T. ) ;
#12 = CARTESIAN_POINT ( 'NONE',  ( 0.0000000000000000000, 0.0000000000000000000, 12.49999999999999822 ) ) ;
#13 = CARTESIAN_POINT ( 'NONE',  ( 0.0000000000000000000, 0.0000000000000000000, 13.50000000000000000 ) ) ;
#14 = DIRECTION ( 'NONE',  ( -1.000000000000000000, 0.0000000000000000000, 0.0000000000000000000 ) ) ;
#15 =( LENGTH_UNIT ( ) NAMED_UNIT ( * ) SI_UNIT ( .MILLI., .METRE. ) );
#16 = LINE ( 'NONE', #40, #152 ) ;
#17 = AXIS2_PLACEMENT_3D ( 'NONE', #62, #291, #167 ) ;
#18 =( NAMED_UNIT ( * ) SI_UNIT ( $, .STERADIAN. ) SOLID_ANGLE_UNIT ( ) );
#19 =( LENGTH_UNIT ( ) NAMED_UNIT ( * ) SI_UNIT ( .MILLI., .METRE. ) );
#20 = DIRECTION ( 'NONE',  ( -0.0000000000000000000, -0.0000000000000000000, -1.000000000000000000 ) ) ;
#21 = ORIENTED_EDGE ( 'NONE', *, *, #105, .T. ) ;
#22 = DIRECTION ( 'NONE',  ( -0.0000000000000000000, -0.0000000000000000000, -1.000000000000000000 ) ) ;
#23 = LINE ( 'NONE', #56, #200 ) ;
#24 = EDGE_CURVE ( 'NONE', #214, #29, #287, .T. ) ;
#25 = UNCERTAINTY_MEASURE_WITH_UNIT (LENGTH_MEASURE( 1.000000000000000082E-05 ), #19, 'distance_accuracy_value', 'NONE');
#26 = VECTOR ( 'NONE', #310, 1000.000000000000114 ) ;
#27 = AXIS2_PLACEMENT_3D ( 'NONE', #130, #192, #14 ) ;
#28 = ADVANCED_FACE ( 'NONE', ( #138 ), #261, .F. ) ;
#29 = VERTEX_POINT ( 'NONE', #3 ) ;
#30 = CIRCLE ( 'NONE', #17, 16.64999999999999858 ) ;
#31 = FACE_OUTER_BOUND ( 'NONE', #296, .T. ) ;
#32 = AXIS2_PLACEMENT_3D ( 'NONE', #217, #173, #86 ) ;
#33 = AXIS2_PLACEMENT_3D ( 'NONE', #145, #259, #248 ) ;
#34 = DIRECTION ( 'NONE',  ( 1.000000000000000000, 0.0000000000000000000, 0.0000000000000000000 ) ) ;
#35 = ORIENTED_EDGE ( 'NONE', *, *, #139, .T. ) ;
#36 = DIRECTION ( 'NONE',  ( 1.000000000000000000, 0.0000000000000000000, 0.0000000000000000000 ) ) ;
#37 = PRESENTATION_STYLE_ASSIGNMENT (( #91 ) ) ;
#38 = EDGE_CURVE ( 'NONE', #251, #70, #194, .T. ) ;
#39 = PLANE ( 'NONE',  #1 ) ;
#40 = CARTESIAN_POINT ( 'NONE',  ( 20.19999999999999929, 0.0000000000000000000, 1.999999999999994893 ) ) ;
#41 = LINE ( 'NONE', #78, #208 ) ;
#42 = EDGE_LOOP ( 'NONE', ( #49, #311, #119, #229 ) ) ;
#43 = CARTESIAN_POINT ( 'NONE',  ( 0.0000000000000000000, 0.0000000000000000000, 0.0000000000000000000 ) ) ;
#44 = SURFACE_SIDE_STYLE ('',( #74 ) ) ;
#45 =( NAMED_UNIT ( * ) PLANE_ANGLE_UNIT ( ) SI_UNIT ( $, .RADIAN. ) );
#46 = PRESENTATION_STYLE_ASSIGNMENT (( #108 ) ) ;
#47 = CIRCLE ( 'NONE', #94, 19.04529946162075049 ) ;
#48 = ORIENTED_EDGE ( 'NONE', *, *, #288, .F. ) ;
#49 = ORIENTED_EDGE ( 'NONE', *, *, #143, .F. ) ;
#50 = AXIS2_PLACEMENT_3D ( 'NONE', #101, #125, #212 ) ;
#51 = EDGE_CURVE ( 'NONE', #174, #237, #144, .T. ) ;
#52 = VECTOR ( 'NONE', #258, 1000.000000000000000 ) ;
#53 = ORIENTED_EDGE ( 'NONE', *, *, #288, .T. ) ;
#54 = ORIENTED_EDGE ( 'NONE', *, *, #51, .F. ) ;
#55 = CARTESIAN_POINT ( 'NONE',  ( -20.19999999999999929, 0.0000000000000000000, 1.999999999999994893 ) ) ;
#56 = CARTESIAN_POINT ( 'NONE',  ( 20.19999999999999929, 2.473786534277653227E-15, 13.50000000000000000 ) ) ;
#57 = CYLINDRICAL_SURFACE ( 'NONE', #128, 16.64999999999999858 ) ;
#58 = ORIENTED_EDGE ( 'NONE', *, *, #292, .T. ) ;
#59 = ORIENTED_EDGE ( 'NONE', *, *, #203, .T. ) ;
#60 = DIRECTION ( 'NONE',  ( -1.000000000000000000, 0.0000000000000000000, 0.0000000000000000000 ) ) ;
#61 = CARTESIAN_POINT ( 'NONE',  ( 0.0000000000000000000, 0.0000000000000000000, 0.0000000000000000000 ) ) ;
#62 = CARTESIAN_POINT ( 'NONE',  ( 0.0000000000000000000, 0.0000000000000000000, 12.49999999999999822 ) ) ;
#63 = PRODUCT ( 'Rondelle droite adaptation pressfit 92', 'Rondelle droite adaptation pressfit 92', '', ( #242 ) ) ;
#64 =( NAMED_UNIT ( * ) PLANE_ANGLE_UNIT ( ) SI_UNIT ( $, .RADIAN. ) );
#65 = AXIS2_PLACEMENT_3D ( 'NONE', #190, #124, #36 ) ;
#66 = VERTEX_POINT ( 'NONE', #55 ) ;
#67 = CARTESIAN_POINT ( 'NONE',  ( 16.64999999999999858, 2.039036920580343136E-15, 12.49999999999999822 ) ) ;
#68 = DIRECTION ( 'NONE',  ( 1.000000000000000000, 0.0000000000000000000, 0.0000000000000000000 ) ) ;
#69 = CARTESIAN_POINT ( 'NONE',  ( 0.0000000000000000000, 0.0000000000000000000, 13.50000000000000000 ) ) ;
#70 = VERTEX_POINT ( 'NONE', #150 ) ;
#71 = ORIENTED_EDGE ( 'NONE', *, *, #213, .T. ) ;
#72 = ADVANCED_FACE ( 'NONE', ( #279 ), #204, .T. ) ;
#73 = EDGE_LOOP ( 'NONE', ( #102, #10, #181, #209 ) ) ;
#74 = SURFACE_STYLE_FILL_AREA ( #243 ) ;
#75 = EDGE_CURVE ( 'NONE', #215, #280, #41, .T. ) ;
#76 = VECTOR ( 'NONE', #275, 1000.000000000000114 ) ;
#77 = AXIS2_PLACEMENT_3D ( 'NONE', #198, #176, #68 ) ;
#78 = CARTESIAN_POINT ( 'NONE',  ( -16.64999999999999858, 2.039036920580343136E-15, 12.49999999999999822 ) ) ;
#79 = FACE_BOUND ( 'NONE', #289, .T. ) ;
#80 = EDGE_CURVE ( 'NONE', #174, #116, #16, .T. ) ;
#81 = CIRCLE ( 'NONE', #205, 20.19999999999999929 ) ;
#82 = DIRECTION ( 'NONE',  ( 0.0000000000000000000, 0.0000000000000000000, 1.000000000000000000 ) ) ;
#83 = DIRECTION ( 'NONE',  ( 1.000000000000000000, 0.0000000000000000000, 0.0000000000000000000 ) ) ;
#84 = DIRECTION ( 'NONE',  ( -0.0000000000000000000, -0.0000000000000000000, -1.000000000000000000 ) ) ;
#85 = LINE ( 'NONE', #112, #26 ) ;
#86 = DIRECTION ( 'NONE',  ( 1.000000000000000000, 0.0000000000000000000, 0.0000000000000000000 ) ) ;
#87 = UNCERTAINTY_MEASURE_WITH_UNIT (LENGTH_MEASURE( 1.000000000000000082E-05 ), #156, 'distance_accuracy_value', 'NONE');
#88 = CARTESIAN_POINT ( 'NONE',  ( -16.64999999999999858, 0.0000000000000000000, 12.49999999999999822 ) ) ;
#89 = CARTESIAN_POINT ( 'NONE',  ( 0.0000000000000000000, 0.0000000000000000000, 0.0000000000000000000 ) ) ;
#90 = FACE_OUTER_BOUND ( 'NONE', #96, .T. ) ;
#91 = SURFACE_STYLE_USAGE ( .BOTH. , #222 ) ;
#92 = LINE ( 'NONE', #263, #260 ) ;
#93 = EDGE_CURVE ( 'NONE', #70, #251, #256, .T. ) ;
#94 = AXIS2_PLACEMENT_3D ( 'NONE', #89, #22, #134 ) ;
#95 = ADVANCED_FACE ( 'NONE', ( #31 ), #307, .T. ) ;
#96 = EDGE_LOOP ( 'NONE', ( #160, #54, #297, #206 ) ) ;
#97 = PRODUCT_DEFINITION_CONTEXT ( 'detailed design', #274, 'design' ) ;
#98 = ADVANCED_FACE ( 'NONE', ( #269 ), #253, .F. ) ;
#99 = EDGE_CURVE ( 'NONE', #29, #280, #189, .T. ) ;
#100 = ORIENTED_EDGE ( 'NONE', *, *, #183, .T. ) ;
#101 = CARTESIAN_POINT ( 'NONE',  ( 0.0000000000000000000, 0.0000000000000000000, 12.49999999999999822 ) ) ;
#102 = ORIENTED_EDGE ( 'NONE', *, *, #75, .F. ) ;
#103 = ORIENTED_EDGE ( 'NONE', *, *, #143, .T. ) ;
#104 = CARTESIAN_POINT ( 'NONE',  ( 0.0000000000000000000, 0.0000000000000000000, 1.999999999999994893 ) ) ;
#105 = EDGE_CURVE ( 'NONE', #214, #215, #30, .T. ) ;
#106 = APPLICATION_PROTOCOL_DEFINITION ( 'draft international standard', 'automotive_design', 1998, #303 ) ;
#107 = PRESENTATION_LAYER_ASSIGNMENT (  '', '', ( #122 ) ) ;
#108 = SURFACE_STYLE_USAGE ( .BOTH. , #44 ) ;
#109 = CARTESIAN_POINT ( 'NONE',  ( 16.64999999999999858, 0.0000000000000000000, 12.49999999999999822 ) ) ;
#110 =( NAMED_UNIT ( * ) SI_UNIT ( $, .STERADIAN. ) SOLID_ANGLE_UNIT ( ) );
#111 = CARTESIAN_POINT ( 'NONE',  ( -19.04529946162075049, 2.403081518362659745E-15, 0.0000000000000000000 ) ) ;
#112 = CARTESIAN_POINT ( 'NONE',  ( -20.19999999999999929, 2.473786534277653227E-15, 1.999999999999994893 ) ) ;
#113 = DIRECTION ( 'NONE',  ( 1.000000000000000000, 0.0000000000000000000, -0.0000000000000000000 ) ) ;
#114 = MECHANICAL_DESIGN_GEOMETRIC_PRESENTATION_REPRESENTATION (  '', ( #262 ), #254 ) ;
#115 = LINE ( 'NONE', #210, #52 ) ;
#116 = VERTEX_POINT ( 'NONE', #164 ) ;
#117 = ORIENTED_EDGE ( 'NONE', *, *, #169, .T. ) ;
#118 = ADVANCED_FACE ( 'NONE', ( #11 ), #148, .T. ) ;
#119 = ORIENTED_EDGE ( 'NONE', *, *, #99, .F. ) ;
#120 = ORIENTED_EDGE ( 'NONE', *, *, #93, .F. ) ;
#121 = COLOUR_RGB ( '',0.8980392156862745390, 0.9176470588235293713, 0.9294117647058823817 ) ;
#122 = STYLED_ITEM ( 'NONE', ( #37 ), #270 ) ;
#123 = ORIENTED_EDGE ( 'NONE', *, *, #38, .F. ) ;
#124 = DIRECTION ( 'NONE',  ( 0.0000000000000000000, 0.0000000000000000000, 1.000000000000000000 ) ) ;
#125 = DIRECTION ( 'NONE',  ( 0.0000000000000000000, 0.0000000000000000000, 1.000000000000000000 ) ) ;
#126 = EDGE_LOOP ( 'NONE', ( #103, #100, #123, #177 ) ) ;
#127 = ORIENTED_EDGE ( 'NONE', *, *, #38, .T. ) ;
#128 = AXIS2_PLACEMENT_3D ( 'NONE', #225, #20, #199 ) ;
#129 = DIRECTION ( 'NONE',  ( 0.0000000000000000000, 0.0000000000000000000, 1.000000000000000000 ) ) ;
#130 = CARTESIAN_POINT ( 'NONE',  ( 0.0000000000000000000, 0.0000000000000000000, 13.50000000000000000 ) ) ;
#131 = DIRECTION ( 'NONE',  ( -0.0000000000000000000, -0.0000000000000000000, 1.000000000000000000 ) ) ;
#132 = ORIENTED_EDGE ( 'NONE', *, *, #93, .T. ) ;
#133 = DIRECTION ( 'NONE',  ( -0.0000000000000000000, -0.0000000000000000000, -1.000000000000000000 ) ) ;
#134 = DIRECTION ( 'NONE',  ( 1.000000000000000000, 0.0000000000000000000, 0.0000000000000000000 ) ) ;
#135 =( NAMED_UNIT ( * ) SI_UNIT ( $, .STERADIAN. ) SOLID_ANGLE_UNIT ( ) );
#136 = FACE_OUTER_BOUND ( 'NONE', #161, .T. ) ;
#137 = FACE_BOUND ( 'NONE', #168, .T. ) ;
#138 = FACE_OUTER_BOUND ( 'NONE', #126, .T. ) ;
#139 = EDGE_CURVE ( 'NONE', #230, #147, #207, .T. ) ;
#140 = MECHANICAL_DESIGN_GEOMETRIC_PRESENTATION_REPRESENTATION (  '', ( #122 ), #7 ) ;
#141 = CIRCLE ( 'NONE', #255, 16.64999999999999858 ) ;
#142 = ADVANCED_FACE ( 'NONE', ( #90 ), #264, .T. ) ;
#143 = EDGE_CURVE ( 'NONE', #215, #214, #141, .T. ) ;
#144 = CIRCLE ( 'NONE', #233, 19.04529946162075049 ) ;
#145 = CARTESIAN_POINT ( 'NONE',  ( 0.0000000000000000000, 0.0000000000000000000, 13.50000000000000000 ) ) ;
#146 = DIRECTION ( 'NONE',  ( 0.0000000000000000000, 0.0000000000000000000, 1.000000000000000000 ) ) ;
#147 = VERTEX_POINT ( 'NONE', #265 ) ;
#148 = CYLINDRICAL_SURFACE ( 'NONE', #155, 20.19999999999999929 ) ;
#149 = SHAPE_DEFINITION_REPRESENTATION ( #305, #282 ) ;
#150 = CARTESIAN_POINT ( 'NONE',  ( 16.64999999999999858, 2.039036920580343136E-15, 0.0000000000000000000 ) ) ;
#151 = DIRECTION ( 'NONE',  ( -0.0000000000000000000, -0.0000000000000000000, -1.000000000000000000 ) ) ;
#152 = VECTOR ( 'NONE', #267, 1000.000000000000114 ) ;
#153 = EDGE_CURVE ( 'NONE', #147, #230, #277, .T. ) ;
#154 = APPLICATION_PROTOCOL_DEFINITION ( 'draft international standard', 'automotive_design', 1998, #274 ) ;
#155 = AXIS2_PLACEMENT_3D ( 'NONE', #299, #151, #60 ) ;
#156 =( LENGTH_UNIT ( ) NAMED_UNIT ( * ) SI_UNIT ( .MILLI., .METRE. ) );
#157 = CARTESIAN_POINT ( 'NONE',  ( -17.22735026918962120, 2.109741936495336618E-15, 13.50000000000000000 ) ) ;
#158 = ORIENTED_EDGE ( 'NONE', *, *, #80, .F. ) ;
#159 = SURFACE_STYLE_FILL_AREA ( #221 ) ;
#160 = ORIENTED_EDGE ( 'NONE', *, *, #203, .F. ) ;
#161 = EDGE_LOOP ( 'NONE', ( #284, #312 ) ) ;
#162 = ORIENTED_EDGE ( 'NONE', *, *, #268, .T. ) ;
#163 = EDGE_LOOP ( 'NONE', ( #250, #59, #48, #158 ) ) ;
#164 = CARTESIAN_POINT ( 'NONE',  ( 20.19999999999999929, 2.473786534277653227E-15, 1.999999999999994893 ) ) ;
#165 = DIRECTION ( 'NONE',  ( -0.4999999999999976685, 6.123233995736736454E-17, 0.8660254037844399289 ) ) ;
#166 = FACE_OUTER_BOUND ( 'NONE', #178, .T. ) ;
#167 = DIRECTION ( 'NONE',  ( 1.000000000000000000, 0.0000000000000000000, 0.0000000000000000000 ) ) ;
#168 = EDGE_LOOP ( 'NONE', ( #185, #162 ) ) ;
#169 = EDGE_CURVE ( 'NONE', #230, #116, #23, .T. ) ;
#170 = ORIENTED_EDGE ( 'NONE', *, *, #4, .F. ) ;
#171 = DIRECTION ( 'NONE',  ( -0.0000000000000000000, -0.0000000000000000000, -1.000000000000000000 ) ) ;
#172 = AXIS2_PLACEMENT_3D ( 'NONE', #175, #309, #247 ) ;
#173 = DIRECTION ( 'NONE',  ( 0.0000000000000000000, 0.0000000000000000000, 1.000000000000000000 ) ) ;
#174 = VERTEX_POINT ( 'NONE', #193 ) ;
#175 = CARTESIAN_POINT ( 'NONE',  ( 0.0000000000000000000, 0.0000000000000000000, 12.49999999999999822 ) ) ;
#176 = DIRECTION ( 'NONE',  ( -0.0000000000000000000, -0.0000000000000000000, -1.000000000000000000 ) ) ;
#177 = ORIENTED_EDGE ( 'NONE', *, *, #213, .F. ) ;
#178 = EDGE_LOOP ( 'NONE', ( #223, #21, #71, #120 ) ) ;
#179 = AXIS2_PLACEMENT_3D ( 'NONE', #218, #131, #302 ) ;
#180 = ADVANCED_FACE ( 'NONE', ( #136, #79 ), #39, .F. ) ;
#181 = ORIENTED_EDGE ( 'NONE', *, *, #24, .T. ) ;
#182 = LINE ( 'NONE', #220, #240 ) ;
#183 = EDGE_CURVE ( 'NONE', #214, #70, #92, .T. ) ;
#184 = AXIS2_PLACEMENT_3D ( 'NONE', #69, #252, #113 ) ;
#185 = ORIENTED_EDGE ( 'NONE', *, *, #99, .T. ) ;
#186 = DIRECTION ( 'NONE',  ( 1.000000000000000000, 0.0000000000000000000, 0.0000000000000000000 ) ) ;
#187 = DIRECTION ( 'NONE',  ( 1.000000000000000000, 0.0000000000000000000, 0.0000000000000000000 ) ) ;
#188 = CARTESIAN_POINT ( 'NONE',  ( 0.0000000000000000000, 0.0000000000000000000, 0.0000000000000000000 ) ) ;
#189 = CIRCLE ( 'NONE', #273, 17.22735026918962120 ) ;
#190 = CARTESIAN_POINT ( 'NONE',  ( 0.0000000000000000000, 0.0000000000000000000, 13.50000000000000000 ) ) ;
#191 = CIRCLE ( 'NONE', #179, 20.19999999999999929 ) ;
#192 = DIRECTION ( 'NONE',  ( -0.0000000000000000000, -0.0000000000000000000, -1.000000000000000000 ) ) ;
#193 = CARTESIAN_POINT ( 'NONE',  ( 19.04529946162075049, 0.0000000000000000000, 0.0000000000000000000 ) ) ;
#194 = CIRCLE ( 'NONE', #290, 16.64999999999999858 ) ;
#195 =( GEOMETRIC_REPRESENTATION_CONTEXT ( 3 ) GLOBAL_UNCERTAINTY_ASSIGNED_CONTEXT ( ( #196 ) ) GLOBAL_UNIT_ASSIGNED_CONTEXT ( ( #15, #45, #110 ) ) REPRESENTATION_CONTEXT ( 'NONE', 'WORKASPACE' ) );
#196 = UNCERTAINTY_MEASURE_WITH_UNIT (LENGTH_MEASURE( 1.000000000000000082E-05 ), #15, 'distance_accuracy_value', 'NONE');
#197 = DIRECTION ( 'NONE',  ( -0.0000000000000000000, -0.0000000000000000000, 1.000000000000000000 ) ) ;
#198 = CARTESIAN_POINT ( 'NONE',  ( 0.0000000000000000000, 0.0000000000000000000, 13.50000000000000000 ) ) ;
#199 = DIRECTION ( 'NONE',  ( -1.000000000000000000, 0.0000000000000000000, 0.0000000000000000000 ) ) ;
#200 = VECTOR ( 'NONE', #84, 1000.000000000000000 ) ;
#201 = PLANE ( 'NONE',  #184 ) ;
#202 = FACE_OUTER_BOUND ( 'NONE', #314, .T. ) ;
#203 = EDGE_CURVE ( 'NONE', #237, #66, #85, .T. ) ;
#204 = CONICAL_SURFACE ( 'NONE', #304, 20.19999999999999929, 0.5235987755982990377 ) ;
#205 = AXIS2_PLACEMENT_3D ( 'NONE', #246, #197, #219 ) ;
#206 = ORIENTED_EDGE ( 'NONE', *, *, #292, .F. ) ;
#207 = CIRCLE ( 'NONE', #65, 20.19999999999999929 ) ;
#208 = VECTOR ( 'NONE', #165, 1000.000000000000114 ) ;
#209 = ORIENTED_EDGE ( 'NONE', *, *, #268, .F. ) ;
#210 = CARTESIAN_POINT ( 'NONE',  ( -20.19999999999999929, 0.0000000000000000000, 13.50000000000000000 ) ) ;
#211 = CIRCLE ( 'NONE', #77, 17.22735026918962120 ) ;
#212 = DIRECTION ( 'NONE',  ( 1.000000000000000000, 0.0000000000000000000, 0.0000000000000000000 ) ) ;
#213 = EDGE_CURVE ( 'NONE', #215, #251, #182, .T. ) ;
#214 = VERTEX_POINT ( 'NONE', #67 ) ;
#215 = VERTEX_POINT ( 'NONE', #88 ) ;
#216 = AXIS2_PLACEMENT_3D ( 'NONE', #8, #146, #83 ) ;
#217 = CARTESIAN_POINT ( 'NONE',  ( 0.0000000000000000000, 0.0000000000000000000, 0.0000000000000000000 ) ) ;
#218 = CARTESIAN_POINT ( 'NONE',  ( 0.0000000000000000000, 0.0000000000000000000, 1.999999999999994893 ) ) ;
#219 = DIRECTION ( 'NONE',  ( 1.000000000000000000, 0.0000000000000000000, 0.0000000000000000000 ) ) ;
#220 = CARTESIAN_POINT ( 'NONE',  ( -16.64999999999999858, 0.0000000000000000000, 13.50000000000000000 ) ) ;
#221 = FILL_AREA_STYLE ('',( #278 ) ) ;
#222 = SURFACE_SIDE_STYLE ('',( #159 ) ) ;
#223 = ORIENTED_EDGE ( 'NONE', *, *, #183, .F. ) ;
#224 = ORIENTED_EDGE ( 'NONE', *, *, #153, .T. ) ;
#225 = CARTESIAN_POINT ( 'NONE',  ( 0.0000000000000000000, 0.0000000000000000000, 13.50000000000000000 ) ) ;
#226 = AXIS2_PLACEMENT_3D ( 'NONE', #104, #238, #187 ) ;
#227 = DIRECTION ( 'NONE',  ( -0.0000000000000000000, -0.0000000000000000000, -1.000000000000000000 ) ) ;
#228 = COLOUR_RGB ( '',0.8980392156862745390, 0.9176470588235293713, 0.9294117647058823817 ) ;
#229 = ORIENTED_EDGE ( 'NONE', *, *, #24, .F. ) ;
#230 = VERTEX_POINT ( 'NONE', #308 ) ;
#231 = ORIENTED_EDGE ( 'NONE', *, *, #4, .T. ) ;
#232 = EDGE_CURVE ( 'NONE', #237, #174, #47, .T. ) ;
#233 = AXIS2_PLACEMENT_3D ( 'NONE', #188, #300, #34 ) ;
#234 = DIRECTION ( 'NONE',  ( 0.0000000000000000000, 0.0000000000000000000, 1.000000000000000000 ) ) ;
#235 = DIRECTION ( 'NONE',  ( 1.000000000000000000, 0.0000000000000000000, -0.0000000000000000000 ) ) ;
#236 = EDGE_LOOP ( 'NONE', ( #245, #298, #231, #58 ) ) ;
#237 = VERTEX_POINT ( 'NONE', #111 ) ;
#238 = DIRECTION ( 'NONE',  ( -0.0000000000000000000, -0.0000000000000000000, 1.000000000000000000 ) ) ;
#239 = CARTESIAN_POINT ( 'NONE',  ( 0.0000000000000000000, 0.0000000000000000000, 1.999999999999994893 ) ) ;
#240 = VECTOR ( 'NONE', #133, 1000.000000000000000 ) ;
#241 = DIRECTION ( 'NONE',  ( 0.0000000000000000000, 0.0000000000000000000, 1.000000000000000000 ) ) ;
#242 = PRODUCT_CONTEXT ( 'NONE', #303, 'mechanical' ) ;
#243 = FILL_AREA_STYLE ('',( #306 ) ) ;
#244 = AXIS2_PLACEMENT_3D ( 'NONE', #13, #82, #293 ) ;
#245 = ORIENTED_EDGE ( 'NONE', *, *, #169, .F. ) ;
#246 = CARTESIAN_POINT ( 'NONE',  ( 0.0000000000000000000, 0.0000000000000000000, 1.999999999999994893 ) ) ;
#247 = DIRECTION ( 'NONE',  ( 1.000000000000000000, 0.0000000000000000000, 0.0000000000000000000 ) ) ;
#248 = DIRECTION ( 'NONE',  ( -1.000000000000000000, 0.0000000000000000000, 0.0000000000000000000 ) ) ;
#249 =( NAMED_UNIT ( * ) PLANE_ANGLE_UNIT ( ) SI_UNIT ( $, .RADIAN. ) );
#250 = ORIENTED_EDGE ( 'NONE', *, *, #232, .F. ) ;
#251 = VERTEX_POINT ( 'NONE', #276 ) ;
#252 = DIRECTION ( 'NONE',  ( 0.0000000000000000000, 0.0000000000000000000, 1.000000000000000000 ) ) ;
#253 = CONICAL_SURFACE ( 'NONE', #50, 16.64999999999999858, 0.5235987755982961511 ) ;
#254 =( GEOMETRIC_REPRESENTATION_CONTEXT ( 3 ) GLOBAL_UNCERTAINTY_ASSIGNED_CONTEXT ( ( #25 ) ) GLOBAL_UNIT_ASSIGNED_CONTEXT ( ( #19, #64, #18 ) ) REPRESENTATION_CONTEXT ( 'NONE', 'WORKASPACE' ) );
#255 = AXIS2_PLACEMENT_3D ( 'NONE', #12, #129, #271 ) ;
#256 = CIRCLE ( 'NONE', #216, 16.64999999999999858 ) ;
#257 = ADVANCED_FACE ( 'NONE', ( #266 ), #286, .F. ) ;
#258 = DIRECTION ( 'NONE',  ( -0.0000000000000000000, -0.0000000000000000000, -1.000000000000000000 ) ) ;
#259 = DIRECTION ( 'NONE',  ( -0.0000000000000000000, -0.0000000000000000000, -1.000000000000000000 ) ) ;
#260 = VECTOR ( 'NONE', #171, 1000.000000000000000 ) ;
#261 = CYLINDRICAL_SURFACE ( 'NONE', #33, 16.64999999999999858 ) ;
#262 = STYLED_ITEM ( 'NONE', ( #46 ), #282 ) ;
#263 = CARTESIAN_POINT ( 'NONE',  ( 16.64999999999999858, 2.039036920580343136E-15, 13.50000000000000000 ) ) ;
#264 = CONICAL_SURFACE ( 'NONE', #226, 20.19999999999999929, 0.5235987755982990377 ) ;
#265 = CARTESIAN_POINT ( 'NONE',  ( -20.19999999999999929, 0.0000000000000000000, 13.50000000000000000 ) ) ;
#266 = FACE_OUTER_BOUND ( 'NONE', #73, .T. ) ;
#267 = DIRECTION ( 'NONE',  ( 0.5000000000000002220, 0.0000000000000000000, 0.8660254037844384856 ) ) ;
#268 = EDGE_CURVE ( 'NONE', #280, #29, #211, .T. ) ;
#269 = FACE_OUTER_BOUND ( 'NONE', #42, .T. ) ;
#270 = MANIFOLD_SOLID_BREP ( 'Chanfrein3', #313 ) ;
#271 = DIRECTION ( 'NONE',  ( 1.000000000000000000, 0.0000000000000000000, 0.0000000000000000000 ) ) ;
#272 = PRODUCT_DEFINITION_FORMATION_WITH_SPECIFIED_SOURCE ( 'ANY', '', #63, .NOT_KNOWN. ) ;
#273 = AXIS2_PLACEMENT_3D ( 'NONE', #281, #227, #301 ) ;
#274 = APPLICATION_CONTEXT ( 'automotive_design' ) ;
#275 = DIRECTION ( 'NONE',  ( 0.4999999999999976685, 0.0000000000000000000, 0.8660254037844399289 ) ) ;
#276 = CARTESIAN_POINT ( 'NONE',  ( -16.64999999999999858, 0.0000000000000000000, 0.0000000000000000000 ) ) ;
#277 = CIRCLE ( 'NONE', #244, 20.19999999999999929 ) ;
#278 = FILL_AREA_STYLE_COLOUR ( '', #121 ) ;
#279 = FACE_OUTER_BOUND ( 'NONE', #163, .T. ) ;
#280 = VERTEX_POINT ( 'NONE', #157 ) ;
#281 = CARTESIAN_POINT ( 'NONE',  ( 0.0000000000000000000, 0.0000000000000000000, 13.50000000000000000 ) ) ;
#282 = ADVANCED_BREP_SHAPE_REPRESENTATION ( 'Rondelle droite adaptation pressfit 92', ( #270, #32 ), #195 ) ;
#283 = PRESENTATION_LAYER_ASSIGNMENT (  '', '', ( #262 ) ) ;
#284 = ORIENTED_EDGE ( 'NONE', *, *, #51, .T. ) ;
#285 = ADVANCED_FACE ( 'NONE', ( #137, #202 ), #201, .T. ) ;
#286 = CONICAL_SURFACE ( 'NONE', #172, 16.64999999999999858, 0.5235987755982961511 ) ;
#287 = LINE ( 'NONE', #109, #76 ) ;
#288 = EDGE_CURVE ( 'NONE', #116, #66, #81, .T. ) ;
#289 = EDGE_LOOP ( 'NONE', ( #127, #132 ) ) ;
#290 = AXIS2_PLACEMENT_3D ( 'NONE', #61, #234, #294 ) ;
#291 = DIRECTION ( 'NONE',  ( 0.0000000000000000000, 0.0000000000000000000, 1.000000000000000000 ) ) ;
#292 = EDGE_CURVE ( 'NONE', #66, #116, #191, .T. ) ;
#293 = DIRECTION ( 'NONE',  ( 1.000000000000000000, 0.0000000000000000000, 0.0000000000000000000 ) ) ;
#294 = DIRECTION ( 'NONE',  ( 1.000000000000000000, 0.0000000000000000000, 0.0000000000000000000 ) ) ;
#295 = PRODUCT_DEFINITION ( 'UNKNOWN', '', #272, #97 ) ;
#296 = EDGE_LOOP ( 'NONE', ( #5, #117, #53, #170 ) ) ;
#297 = ORIENTED_EDGE ( 'NONE', *, *, #80, .T. ) ;
#298 = ORIENTED_EDGE ( 'NONE', *, *, #153, .F. ) ;
#299 = CARTESIAN_POINT ( 'NONE',  ( 0.0000000000000000000, 0.0000000000000000000, 13.50000000000000000 ) ) ;
#300 = DIRECTION ( 'NONE',  ( -0.0000000000000000000, -0.0000000000000000000, -1.000000000000000000 ) ) ;
#301 = DIRECTION ( 'NONE',  ( 1.000000000000000000, 0.0000000000000000000, 0.0000000000000000000 ) ) ;
#302 = DIRECTION ( 'NONE',  ( 1.000000000000000000, 0.0000000000000000000, 0.0000000000000000000 ) ) ;
#303 = APPLICATION_CONTEXT ( 'automotive_design' ) ;
#304 = AXIS2_PLACEMENT_3D ( 'NONE', #239, #9, #186 ) ;
#305 = PRODUCT_DEFINITION_SHAPE ( 'NONE', 'NONE',  #295 ) ;
#306 = FILL_AREA_STYLE_COLOUR ( '', #228 ) ;
#307 = CYLINDRICAL_SURFACE ( 'NONE', #27, 20.19999999999999929 ) ;
#308 = CARTESIAN_POINT ( 'NONE',  ( 20.19999999999999929, 2.473786534277653227E-15, 13.50000000000000000 ) ) ;
#309 = DIRECTION ( 'NONE',  ( 0.0000000000000000000, 0.0000000000000000000, 1.000000000000000000 ) ) ;
#310 = DIRECTION ( 'NONE',  ( -0.5000000000000002220, 6.123233995736768501E-17, 0.8660254037844384856 ) ) ;
#311 = ORIENTED_EDGE ( 'NONE', *, *, #75, .T. ) ;
#312 = ORIENTED_EDGE ( 'NONE', *, *, #232, .T. ) ;
#313 = CLOSED_SHELL ( 'NONE', ( #72, #98, #28, #95, #285, #180, #118, #2, #257, #142 ) ) ;
#314 = EDGE_LOOP ( 'NONE', ( #224, #35 ) ) ;
ENDSEC;
END-ISO-10303-21;
