ISO-10303-21;
HEADER;
/* Generated by software containing ST-Developer
 * from STEP Tools, Inc. (www.steptools.com) 
 */

FILE_DESCRIPTION(
/* description */ (''),
/* implementation_level */ '2;1');

FILE_NAME(
/* name */ 'D:\\THEO\\Documents inventor\\Adaptateur mandrin.stp',
/* time_stamp */ '2019-04-25T11:50:08+02:00',
/* author */ ('Pascal'),
/* organization */ (''),
/* preprocessor_version */ 'ST-DEVELOPER v17',
/* originating_system */ 'Autodesk Inventor 2019',
/* authorisation */ '');

FILE_SCHEMA (('AUTOMOTIVE_DESIGN { 1 0 10303 214 3 1 1 }'));
ENDSEC;

DATA;
#10=MECHANICAL_DESIGN_GEOMETRIC_PRESENTATION_REPRESENTATION('',(#13),#191);
#11=SHAPE_REPRESENTATION_RELATIONSHIP('SRR','None',#198,#12);
#12=ADVANCED_BREP_SHAPE_REPRESENTATION('',(#14),#190);
#13=STYLED_ITEM('',(#207),#14);
#14=MANIFOLD_SOLID_BREP('Solide1',#97);
#15=FACE_BOUND('',#32,.T.);
#16=PLANE('',#128);
#17=PLANE('',#129);
#18=CYLINDRICAL_SURFACE('',#120,1.55);
#19=CYLINDRICAL_SURFACE('',#126,6.);
#20=FACE_OUTER_BOUND('',#26,.T.);
#21=FACE_OUTER_BOUND('',#27,.T.);
#22=FACE_OUTER_BOUND('',#28,.T.);
#23=FACE_OUTER_BOUND('',#29,.T.);
#24=FACE_OUTER_BOUND('',#30,.T.);
#25=FACE_OUTER_BOUND('',#31,.T.);
#26=EDGE_LOOP('',(#67,#68,#69,#70));
#27=EDGE_LOOP('',(#71,#72,#73,#74,#75,#76));
#28=EDGE_LOOP('',(#77,#78,#79,#80));
#29=EDGE_LOOP('',(#81,#82,#83,#84));
#30=EDGE_LOOP('',(#85));
#31=EDGE_LOOP('',(#86));
#32=EDGE_LOOP('',(#87,#88));
#33=LINE('',#168,#37);
#34=LINE('',#175,#38);
#35=LINE('',#180,#39);
#36=LINE('',#185,#40);
#37=VECTOR('',#136,0.775);
#38=VECTOR('',#145,1.55);
#39=VECTOR('',#150,5.5);
#40=VECTOR('',#157,6.);
#41=CIRCLE('',#118,1.55);
#42=CIRCLE('',#119,1.55);
#43=CIRCLE('',#121,1.55);
#44=CIRCLE('',#122,1.55);
#45=CIRCLE('',#124,5.);
#46=CIRCLE('',#125,6.);
#47=CIRCLE('',#127,6.);
#48=VERTEX_POINT('',#164);
#49=VERTEX_POINT('',#165);
#50=VERTEX_POINT('',#167);
#51=VERTEX_POINT('',#171);
#52=VERTEX_POINT('',#172);
#53=VERTEX_POINT('',#177);
#54=VERTEX_POINT('',#179);
#55=VERTEX_POINT('',#183);
#56=EDGE_CURVE('',#48,#49,#41,.T.);
#57=EDGE_CURVE('',#49,#50,#33,.T.);
#58=EDGE_CURVE('',#49,#48,#42,.T.);
#59=EDGE_CURVE('',#51,#52,#43,.T.);
#60=EDGE_CURVE('',#52,#51,#44,.T.);
#61=EDGE_CURVE('',#52,#49,#34,.T.);
#62=EDGE_CURVE('',#53,#53,#45,.T.);
#63=EDGE_CURVE('',#53,#54,#35,.T.);
#64=EDGE_CURVE('',#54,#54,#46,.T.);
#65=EDGE_CURVE('',#55,#55,#47,.T.);
#66=EDGE_CURVE('',#55,#54,#36,.T.);
#67=ORIENTED_EDGE('',*,*,#56,.T.);
#68=ORIENTED_EDGE('',*,*,#57,.T.);
#69=ORIENTED_EDGE('',*,*,#57,.F.);
#70=ORIENTED_EDGE('',*,*,#58,.T.);
#71=ORIENTED_EDGE('',*,*,#59,.F.);
#72=ORIENTED_EDGE('',*,*,#60,.F.);
#73=ORIENTED_EDGE('',*,*,#61,.T.);
#74=ORIENTED_EDGE('',*,*,#56,.F.);
#75=ORIENTED_EDGE('',*,*,#58,.F.);
#76=ORIENTED_EDGE('',*,*,#61,.F.);
#77=ORIENTED_EDGE('',*,*,#62,.T.);
#78=ORIENTED_EDGE('',*,*,#63,.T.);
#79=ORIENTED_EDGE('',*,*,#64,.T.);
#80=ORIENTED_EDGE('',*,*,#63,.F.);
#81=ORIENTED_EDGE('',*,*,#65,.F.);
#82=ORIENTED_EDGE('',*,*,#66,.T.);
#83=ORIENTED_EDGE('',*,*,#64,.F.);
#84=ORIENTED_EDGE('',*,*,#66,.F.);
#85=ORIENTED_EDGE('',*,*,#62,.F.);
#86=ORIENTED_EDGE('',*,*,#65,.T.);
#87=ORIENTED_EDGE('',*,*,#59,.T.);
#88=ORIENTED_EDGE('',*,*,#60,.T.);
#89=CONICAL_SURFACE('',#117,0.775,1.02974425867665);
#90=CONICAL_SURFACE('',#123,5.5,0.785398163397448);
#91=ADVANCED_FACE('',(#20),#89,.F.);
#92=ADVANCED_FACE('',(#21),#18,.F.);
#93=ADVANCED_FACE('',(#22),#90,.T.);
#94=ADVANCED_FACE('',(#23),#19,.T.);
#95=ADVANCED_FACE('',(#24),#16,.F.);
#96=ADVANCED_FACE('',(#25,#15),#17,.T.);
#97=CLOSED_SHELL('',(#91,#92,#93,#94,#95,#96));
#98=DERIVED_UNIT_ELEMENT(#100,1.);
#99=DERIVED_UNIT_ELEMENT(#193,3.);
#100=(
MASS_UNIT()
NAMED_UNIT(*)
SI_UNIT($,.GRAM.)
);
#101=DERIVED_UNIT((#98,#99));
#102=MEASURE_REPRESENTATION_ITEM('density measure',
POSITIVE_RATIO_MEASURE(8.47),#101);
#103=PROPERTY_DEFINITION_REPRESENTATION(#108,#105);
#104=PROPERTY_DEFINITION_REPRESENTATION(#109,#106);
#105=REPRESENTATION('material name',(#107),#190);
#106=REPRESENTATION('density',(#102),#190);
#107=DESCRIPTIVE_REPRESENTATION_ITEM('Laiton','Laiton');
#108=PROPERTY_DEFINITION('material property','material name',#200);
#109=PROPERTY_DEFINITION('material property','density of part',#200);
#110=DATE_TIME_ROLE('creation_date');
#111=APPLIED_DATE_AND_TIME_ASSIGNMENT(#112,#110,(#200));
#112=DATE_AND_TIME(#113,#114);
#113=CALENDAR_DATE(2019,25,4);
#114=LOCAL_TIME(11,22,26.,#115);
#115=COORDINATED_UNIVERSAL_TIME_OFFSET(0,0,.BEHIND.);
#116=AXIS2_PLACEMENT_3D('placement',#162,#130,#131);
#117=AXIS2_PLACEMENT_3D('',#163,#132,#133);
#118=AXIS2_PLACEMENT_3D('',#166,#134,#135);
#119=AXIS2_PLACEMENT_3D('',#169,#137,#138);
#120=AXIS2_PLACEMENT_3D('',#170,#139,#140);
#121=AXIS2_PLACEMENT_3D('',#173,#141,#142);
#122=AXIS2_PLACEMENT_3D('',#174,#143,#144);
#123=AXIS2_PLACEMENT_3D('',#176,#146,#147);
#124=AXIS2_PLACEMENT_3D('',#178,#148,#149);
#125=AXIS2_PLACEMENT_3D('',#181,#151,#152);
#126=AXIS2_PLACEMENT_3D('',#182,#153,#154);
#127=AXIS2_PLACEMENT_3D('',#184,#155,#156);
#128=AXIS2_PLACEMENT_3D('',#186,#158,#159);
#129=AXIS2_PLACEMENT_3D('',#187,#160,#161);
#130=DIRECTION('axis',(0.,0.,1.));
#131=DIRECTION('refdir',(1.,0.,0.));
#132=DIRECTION('center_axis',(0.,0.,1.));
#133=DIRECTION('ref_axis',(1.,0.,0.));
#134=DIRECTION('center_axis',(0.,0.,1.));
#135=DIRECTION('ref_axis',(1.,0.,0.));
#136=DIRECTION('',(0.857167300702112,1.04972719113862E-16,-0.515038074910054));
#137=DIRECTION('center_axis',(0.,0.,1.));
#138=DIRECTION('ref_axis',(1.,0.,0.));
#139=DIRECTION('center_axis',(0.,0.,1.));
#140=DIRECTION('ref_axis',(1.,0.,0.));
#141=DIRECTION('center_axis',(0.,0.,-1.));
#142=DIRECTION('ref_axis',(1.,0.,0.));
#143=DIRECTION('center_axis',(0.,0.,-1.));
#144=DIRECTION('ref_axis',(1.,0.,0.));
#145=DIRECTION('',(0.,0.,-1.));
#146=DIRECTION('center_axis',(0.,0.,1.));
#147=DIRECTION('ref_axis',(-1.,0.,0.));
#148=DIRECTION('center_axis',(0.,0.,1.));
#149=DIRECTION('ref_axis',(-1.,0.,0.));
#150=DIRECTION('',(0.707106781186547,-8.65956056235493E-17,0.707106781186548));
#151=DIRECTION('center_axis',(0.,0.,-1.));
#152=DIRECTION('ref_axis',(-1.,0.,0.));
#153=DIRECTION('center_axis',(0.,0.,1.));
#154=DIRECTION('ref_axis',(-1.,0.,0.));
#155=DIRECTION('center_axis',(0.,0.,1.));
#156=DIRECTION('ref_axis',(-1.,0.,0.));
#157=DIRECTION('',(0.,0.,-1.));
#158=DIRECTION('center_axis',(0.,0.,1.));
#159=DIRECTION('ref_axis',(1.,0.,0.));
#160=DIRECTION('center_axis',(0.,0.,1.));
#161=DIRECTION('ref_axis',(1.,0.,0.));
#162=CARTESIAN_POINT('',(0.,0.,0.));
#163=CARTESIAN_POINT('Origin',(0.,0.,3.53433302025364));
#164=CARTESIAN_POINT('',(1.55,0.,4.));
#165=CARTESIAN_POINT('',(-1.55,-1.8982025386784E-16,4.));
#166=CARTESIAN_POINT('Origin',(0.,0.,4.));
#167=CARTESIAN_POINT('',(0.,0.,3.06866604050728));
#168=CARTESIAN_POINT('',(-0.775,-9.49101269339199E-17,3.53433302025364));
#169=CARTESIAN_POINT('Origin',(0.,0.,4.));
#170=CARTESIAN_POINT('Origin',(0.,0.,11.));
#171=CARTESIAN_POINT('',(1.55,0.,18.));
#172=CARTESIAN_POINT('',(-1.55,-1.8982025386784E-16,18.));
#173=CARTESIAN_POINT('Origin',(0.,0.,18.));
#174=CARTESIAN_POINT('Origin',(0.,0.,18.));
#175=CARTESIAN_POINT('',(-1.55,-1.8982025386784E-16,11.));
#176=CARTESIAN_POINT('Origin',(0.,0.,0.5));
#177=CARTESIAN_POINT('',(5.,6.12323399573677E-16,0.));
#178=CARTESIAN_POINT('Origin',(0.,0.,0.));
#179=CARTESIAN_POINT('',(6.,-7.34788079488412E-16,1.));
#180=CARTESIAN_POINT('',(5.5,-6.73555739531044E-16,0.5));
#181=CARTESIAN_POINT('Origin',(0.,0.,1.));
#182=CARTESIAN_POINT('Origin',(0.,0.,0.));
#183=CARTESIAN_POINT('',(6.,7.34788079488412E-16,18.));
#184=CARTESIAN_POINT('Origin',(0.,0.,18.));
#185=CARTESIAN_POINT('',(6.,7.34788079488412E-16,0.));
#186=CARTESIAN_POINT('Origin',(-6.78022909193566E-16,1.54197642309049E-16,
0.));
#187=CARTESIAN_POINT('Origin',(-6.78022909193566E-16,1.54197642309049E-16,
18.));
#188=UNCERTAINTY_MEASURE_WITH_UNIT(LENGTH_MEASURE(0.01),#192,
'DISTANCE_ACCURACY_VALUE',
'Maximum model space distance between geometric entities at asserted c
onnectivities');
#189=UNCERTAINTY_MEASURE_WITH_UNIT(LENGTH_MEASURE(0.01),#192,
'DISTANCE_ACCURACY_VALUE',
'Maximum model space distance between geometric entities at asserted c
onnectivities');
#190=(
GEOMETRIC_REPRESENTATION_CONTEXT(3)
GLOBAL_UNCERTAINTY_ASSIGNED_CONTEXT((#188))
GLOBAL_UNIT_ASSIGNED_CONTEXT((#192,#195,#194))
REPRESENTATION_CONTEXT('','3D')
);
#191=(
GEOMETRIC_REPRESENTATION_CONTEXT(3)
GLOBAL_UNCERTAINTY_ASSIGNED_CONTEXT((#189))
GLOBAL_UNIT_ASSIGNED_CONTEXT((#192,#195,#194))
REPRESENTATION_CONTEXT('','3D')
);
#192=(
LENGTH_UNIT()
NAMED_UNIT(*)
SI_UNIT(.MILLI.,.METRE.)
);
#193=(
LENGTH_UNIT()
NAMED_UNIT(*)
SI_UNIT(.CENTI.,.METRE.)
);
#194=(
NAMED_UNIT(*)
SI_UNIT($,.STERADIAN.)
SOLID_ANGLE_UNIT()
);
#195=(
NAMED_UNIT(*)
PLANE_ANGLE_UNIT()
SI_UNIT($,.RADIAN.)
);
#196=SHAPE_DEFINITION_REPRESENTATION(#197,#198);
#197=PRODUCT_DEFINITION_SHAPE('',$,#200);
#198=SHAPE_REPRESENTATION('',(#116),#190);
#199=PRODUCT_DEFINITION_CONTEXT('part definition',#204,'design');
#200=PRODUCT_DEFINITION('Adaptateur mandrin','Adaptateur mandrin',#201,
#199);
#201=PRODUCT_DEFINITION_FORMATION('',$,#206);
#202=PRODUCT_RELATED_PRODUCT_CATEGORY('Adaptateur mandrin',
'Adaptateur mandrin',(#206));
#203=APPLICATION_PROTOCOL_DEFINITION('international standard',
'automotive_design',2009,#204);
#204=APPLICATION_CONTEXT(
'Core Data for Automotive Mechanical Design Process');
#205=PRODUCT_CONTEXT('part definition',#204,'mechanical');
#206=PRODUCT('Adaptateur mandrin','Adaptateur mandrin',$,(#205));
#207=PRESENTATION_STYLE_ASSIGNMENT((#208));
#208=SURFACE_STYLE_USAGE(.BOTH.,#209);
#209=SURFACE_SIDE_STYLE('',(#210));
#210=SURFACE_STYLE_FILL_AREA(#211);
#211=FILL_AREA_STYLE('',(#212));
#212=FILL_AREA_STYLE_COLOUR('',#213);
#213=COLOUR_RGB('',0.796078431372549,0.603921568627451,0.231372549019608);
ENDSEC;
END-ISO-10303-21;
