ISO-10303-21;
HEADER;
FILE_DESCRIPTION( ( 'STEP AP203' ), '1' );
FILE_NAME( 'E:/cache carter z1000 2.step', '  ', ( '  ' ), ( '  ' ), 'PSStep 10.0', '  ', '  ' );
FILE_SCHEMA( ( 'CONFIG_CONTROL_DESIGN' ) );
ENDSEC;
DATA;
#1 = DESIGN_CONTEXT( '', #27, 'design' );
#2 = APPLICATION_PROTOCOL_DEFINITION( 'INTERNATIONAL STANDARD', 'config_control_design', 1994, #27 );
#3 = PRODUCT_CATEGORY_RELATIONSHIP( 'NONE', 'NONE', #28, #29 );
#4 = DATE_AND_TIME( #30, #31 );
#5 = DATE_TIME_ROLE( 'creation_date' );
#6 = DATE_TIME_ROLE( 'classification_date' );
#7 = PERSON_AND_ORGANIZATION_ROLE( 'creator' );
#8 = PERSON_AND_ORGANIZATION_ROLE( 'design_supplier' );
#9 = PERSON_AND_ORGANIZATION_ROLE( 'classification_officer' );
#10 = PERSON_AND_ORGANIZATION_ROLE( 'design_owner' );
#11 = APPROVAL_PERSON_ORGANIZATION( #32, #33, #34 );
#12 = APPROVAL_DATE_TIME( #4, #33 );
#13 = CC_DESIGN_APPROVAL( #33, ( #35, #36, #37 ) );
#14 = CC_DESIGN_DATE_AND_TIME_ASSIGNMENT( #4, #5, ( #37 ) );
#15 = CC_DESIGN_DATE_AND_TIME_ASSIGNMENT( #4, #6, ( #35 ) );
#16 = CC_DESIGN_PERSON_AND_ORGANIZATION_ASSIGNMENT( #32, #10, ( #38 ) );
#17 = CC_DESIGN_PERSON_AND_ORGANIZATION_ASSIGNMENT( #32, #7, ( #37 ) );
#18 = CC_DESIGN_PERSON_AND_ORGANIZATION_ASSIGNMENT( #32, #7, ( #36 ) );
#19 = CC_DESIGN_PERSON_AND_ORGANIZATION_ASSIGNMENT( #32, #8, ( #36 ) );
#20 = CC_DESIGN_SECURITY_CLASSIFICATION( #35, ( #36 ) );
#21 = CC_DESIGN_PERSON_AND_ORGANIZATION_ASSIGNMENT( #32, #9, ( #35 ) );
#22 = SHAPE_DEFINITION_REPRESENTATION( #39, #40 );
#23 =  ( GEOMETRIC_REPRESENTATION_CONTEXT( 3 )GLOBAL_UNCERTAINTY_ASSIGNED_CONTEXT( ( #43 ) )GLOBAL_UNIT_ASSIGNED_CONTEXT( ( #45, #46, #47 ) )REPRESENTATION_CONTEXT( 'NONE', 'WORKSPACE' ) );
#27 = APPLICATION_CONTEXT( 'CONFIGURATION CONTROLLED 3D DESIGNS OF MECHANICAL PARTS AND ASSEMBLIES' );
#28 = PRODUCT_CATEGORY( 'part', 'NONE' );
#29 = PRODUCT_RELATED_PRODUCT_CATEGORY( 'detail', ' ', ( #38 ) );
#30 = CALENDAR_DATE( 2019, 7, 3 );
#31 = LOCAL_TIME( 19, 6, 34.0000000000000, #49 );
#32 = PERSON_AND_ORGANIZATION( #50, #51 );
#33 = APPROVAL( #52, 'SOLID MODEL' );
#34 = APPROVAL_ROLE( 'APPROVED' );
#35 = SECURITY_CLASSIFICATION( '', '', #53 );
#36 = PRODUCT_DEFINITION_FORMATION_WITH_SPECIFIED_SOURCE( ' ', 'NONE', #38, .NOT_KNOWN. );
#37 = PRODUCT_DEFINITION( 'NONE', 'NONE', #36, #1 );
#38 = PRODUCT( '1', '1', 'PART-1-DESC', ( #54 ) );
#39 = PRODUCT_DEFINITION_SHAPE( 'NONE', 'NONE', #37 );
#40 = ADVANCED_BREP_SHAPE_REPRESENTATION( '1', ( #55, #56 ), #23 );
#43 = UNCERTAINTY_MEASURE_WITH_UNIT( LENGTH_MEASURE( 0.00100000000000000 ), #45, '', '' );
#45 =  ( CONVERSION_BASED_UNIT( 'MILLIMETRE', #59 )LENGTH_UNIT(  )NAMED_UNIT( #62 ) );
#46 =  ( NAMED_UNIT( #64 )PLANE_ANGLE_UNIT(  )SI_UNIT( $, .RADIAN. ) );
#47 =  ( NAMED_UNIT( #64 )SI_UNIT( $, .STERADIAN. )SOLID_ANGLE_UNIT(  ) );
#49 = COORDINATED_UNIVERSAL_TIME_OFFSET( 1, 0, .AHEAD. );
#50 = PERSON( '', 'UNSPECIFIED', $, $, $, $ );
#51 = ORGANIZATION( 'UNSPECIFIED', 'UNSPECIFIED', 'UNSPECIFIED' );
#52 = APPROVAL_STATUS( 'approved' );
#53 = SECURITY_CLASSIFICATION_LEVEL( 'unclassified' );
#54 = MECHANICAL_CONTEXT( '', #27, 'mechanical' );
#55 = MANIFOLD_SOLID_BREP( '1', #70 );
#56 = AXIS2_PLACEMENT_3D( '', #71, #72, #73 );
#59 = LENGTH_MEASURE_WITH_UNIT( LENGTH_MEASURE( 1.00000000000000 ), #74 );
#62 = DIMENSIONAL_EXPONENTS( 1.00000000000000, 0.000000000000000, 0.000000000000000, 0.000000000000000, 0.000000000000000, 0.000000000000000, 0.000000000000000 );
#64 = DIMENSIONAL_EXPONENTS( 0.000000000000000, 0.000000000000000, 0.000000000000000, 0.000000000000000, 0.000000000000000, 0.000000000000000, 0.000000000000000 );
#70 = CLOSED_SHELL( '', ( #75, #76, #77, #78, #79, #80, #81, #82, #83, #84 ) );
#71 = CARTESIAN_POINT( '', ( 0.000000000000000, 0.000000000000000, 0.000000000000000 ) );
#72 = DIRECTION( '', ( 0.000000000000000, 0.000000000000000, 1.00000000000000 ) );
#73 = DIRECTION( '', ( 1.00000000000000, 0.000000000000000, 0.000000000000000 ) );
#74 =  ( LENGTH_UNIT(  )NAMED_UNIT( #62 )SI_UNIT( .MILLI., .METRE. ) );
#75 = ADVANCED_FACE( '', ( #86, #87 ), #88, .F. );
#76 = ADVANCED_FACE( '', ( #89, #90, #91 ), #92, .T. );
#77 = ADVANCED_FACE( '', ( #93, #94 ), #95, .T. );
#78 = ADVANCED_FACE( '', ( #96, #97 ), #98, .F. );
#79 = ADVANCED_FACE( '', ( #99, #100 ), #101, .T. );
#80 = ADVANCED_FACE( '', ( #102, #103, #104 ), #105, .F. );
#81 = ADVANCED_FACE( '', ( #106, #107 ), #108, .T. );
#82 = ADVANCED_FACE( '', ( #109, #110 ), #111, .F. );
#83 = ADVANCED_FACE( '', ( #112, #113 ), #114, .F. );
#84 = ADVANCED_FACE( '', ( #115, #116 ), #117, .T. );
#86 = FACE_OUTER_BOUND( '', #118, .T. );
#87 = FACE_OUTER_BOUND( '', #119, .T. );
#88 = CYLINDRICAL_SURFACE( '', #120, 3.25000000000000 );
#89 = FACE_OUTER_BOUND( '', #121, .T. );
#90 = FACE_BOUND( '', #122, .T. );
#91 = FACE_BOUND( '', #123, .T. );
#92 = PLANE( '', #124 );
#93 = FACE_OUTER_BOUND( '', #125, .T. );
#94 = FACE_BOUND( '', #126, .T. );
#95 = CONICAL_SURFACE( '', #127, 43.4000000000000, 0.785398163397449 );
#96 = FACE_OUTER_BOUND( '', #128, .T. );
#97 = FACE_OUTER_BOUND( '', #129, .T. );
#98 = CYLINDRICAL_SURFACE( '', #130, 3.25000000000000 );
#99 = FACE_OUTER_BOUND( '', #131, .T. );
#100 = FACE_OUTER_BOUND( '', #132, .T. );
#101 = CYLINDRICAL_SURFACE( '', #133, 47.4000000000000 );
#102 = FACE_OUTER_BOUND( '', #134, .T. );
#103 = FACE_BOUND( '', #135, .T. );
#104 = FACE_BOUND( '', #136, .T. );
#105 = PLANE( '', #137 );
#106 = FACE_OUTER_BOUND( '', #138, .T. );
#107 = FACE_BOUND( '', #139, .T. );
#108 = PLANE( '', #140 );
#109 = FACE_OUTER_BOUND( '', #141, .T. );
#110 = FACE_OUTER_BOUND( '', #142, .T. );
#111 = CYLINDRICAL_SURFACE( '', #143, 5.99999999999999 );
#112 = FACE_OUTER_BOUND( '', #144, .T. );
#113 = FACE_OUTER_BOUND( '', #145, .T. );
#114 = CYLINDRICAL_SURFACE( '', #146, 6.00000000000000 );
#115 = FACE_OUTER_BOUND( '', #147, .T. );
#116 = FACE_BOUND( '', #148, .T. );
#117 = PLANE( '', #149 );
#118 = EDGE_LOOP( '', ( #150 ) );
#119 = EDGE_LOOP( '', ( #151 ) );
#120 = AXIS2_PLACEMENT_3D( '', #152, #153, #154 );
#121 = EDGE_LOOP( '', ( #155 ) );
#122 = EDGE_LOOP( '', ( #156 ) );
#123 = EDGE_LOOP( '', ( #157 ) );
#124 = AXIS2_PLACEMENT_3D( '', #158, #159, #160 );
#125 = EDGE_LOOP( '', ( #161 ) );
#126 = EDGE_LOOP( '', ( #162 ) );
#127 = AXIS2_PLACEMENT_3D( '', #163, #164, #165 );
#128 = EDGE_LOOP( '', ( #166 ) );
#129 = EDGE_LOOP( '', ( #167 ) );
#130 = AXIS2_PLACEMENT_3D( '', #168, #169, #170 );
#131 = EDGE_LOOP( '', ( #171 ) );
#132 = EDGE_LOOP( '', ( #172 ) );
#133 = AXIS2_PLACEMENT_3D( '', #173, #174, #175 );
#134 = EDGE_LOOP( '', ( #176 ) );
#135 = EDGE_LOOP( '', ( #177 ) );
#136 = EDGE_LOOP( '', ( #178 ) );
#137 = AXIS2_PLACEMENT_3D( '', #179, #180, #181 );
#138 = EDGE_LOOP( '', ( #182 ) );
#139 = EDGE_LOOP( '', ( #183 ) );
#140 = AXIS2_PLACEMENT_3D( '', #184, #185, #186 );
#141 = EDGE_LOOP( '', ( #187 ) );
#142 = EDGE_LOOP( '', ( #188 ) );
#143 = AXIS2_PLACEMENT_3D( '', #189, #190, #191 );
#144 = EDGE_LOOP( '', ( #192 ) );
#145 = EDGE_LOOP( '', ( #193 ) );
#146 = AXIS2_PLACEMENT_3D( '', #194, #195, #196 );
#147 = EDGE_LOOP( '', ( #197 ) );
#148 = EDGE_LOOP( '', ( #198 ) );
#149 = AXIS2_PLACEMENT_3D( '', #199, #200, #201 );
#150 = ORIENTED_EDGE( '', *, *, #202, .T. );
#151 = ORIENTED_EDGE( '', *, *, #203, .T. );
#152 = CARTESIAN_POINT( '', ( 34.0000000000000, 0.000000000000000, 100.000000000000 ) );
#153 = DIRECTION( '', ( 0.000000000000000, -0.000000000000000, 1.00000000000000 ) );
#154 = DIRECTION( '', ( -1.00000000000000, 0.000000000000000, 0.000000000000000 ) );
#155 = ORIENTED_EDGE( '', *, *, #204, .T. );
#156 = ORIENTED_EDGE( '', *, *, #205, .F. );
#157 = ORIENTED_EDGE( '', *, *, #206, .F. );
#158 = CARTESIAN_POINT( '', ( 0.000000000000000, 0.000000000000000, 100.000000000000 ) );
#159 = DIRECTION( '', ( 0.000000000000000, 0.000000000000000, 1.00000000000000 ) );
#160 = DIRECTION( '', ( 1.00000000000000, -0.000000000000000, 0.000000000000000 ) );
#161 = ORIENTED_EDGE( '', *, *, #207, .F. );
#162 = ORIENTED_EDGE( '', *, *, #204, .F. );
#163 = CARTESIAN_POINT( '', ( 0.000000000000000, 0.000000000000000, 100.000000000000 ) );
#164 = DIRECTION( '', ( -0.000000000000000, 0.000000000000000, -1.00000000000000 ) );
#165 = DIRECTION( '', ( -1.00000000000000, 0.000000000000000, 0.000000000000000 ) );
#166 = ORIENTED_EDGE( '', *, *, #208, .T. );
#167 = ORIENTED_EDGE( '', *, *, #209, .T. );
#168 = CARTESIAN_POINT( '', ( -34.0000000000000, 0.000000000000000, 100.000000000000 ) );
#169 = DIRECTION( '', ( 0.000000000000000, -0.000000000000000, 1.00000000000000 ) );
#170 = DIRECTION( '', ( -1.00000000000000, 0.000000000000000, 0.000000000000000 ) );
#171 = ORIENTED_EDGE( '', *, *, #207, .T. );
#172 = ORIENTED_EDGE( '', *, *, #210, .T. );
#173 = CARTESIAN_POINT( '', ( 0.000000000000000, 0.000000000000000, 100.000000000000 ) );
#174 = DIRECTION( '', ( 0.000000000000000, -0.000000000000000, 1.00000000000000 ) );
#175 = DIRECTION( '', ( -1.00000000000000, 0.000000000000000, 0.000000000000000 ) );
#176 = ORIENTED_EDGE( '', *, *, #210, .F. );
#177 = ORIENTED_EDGE( '', *, *, #208, .F. );
#178 = ORIENTED_EDGE( '', *, *, #202, .F. );
#179 = CARTESIAN_POINT( '', ( 0.000000000000000, 0.000000000000000, 90.0000000000000 ) );
#180 = DIRECTION( '', ( 0.000000000000000, 0.000000000000000, 1.00000000000000 ) );
#181 = DIRECTION( '', ( 1.00000000000000, -0.000000000000000, 0.000000000000000 ) );
#182 = ORIENTED_EDGE( '', *, *, #211, .T. );
#183 = ORIENTED_EDGE( '', *, *, #203, .F. );
#184 = CARTESIAN_POINT( '', ( 34.0000000000000, 0.000000000000000, 93.0000000000000 ) );
#185 = DIRECTION( '', ( 0.000000000000000, 0.000000000000000, 1.00000000000000 ) );
#186 = DIRECTION( '', ( 1.00000000000000, -0.000000000000000, 0.000000000000000 ) );
#187 = ORIENTED_EDGE( '', *, *, #206, .T. );
#188 = ORIENTED_EDGE( '', *, *, #212, .F. );
#189 = CARTESIAN_POINT( '', ( -34.0000000000000, 0.000000000000000, 100.000000000000 ) );
#190 = DIRECTION( '', ( 0.000000000000000, -0.000000000000000, 1.00000000000000 ) );
#191 = DIRECTION( '', ( -1.00000000000000, 0.000000000000000, 0.000000000000000 ) );
#192 = ORIENTED_EDGE( '', *, *, #205, .T. );
#193 = ORIENTED_EDGE( '', *, *, #211, .F. );
#194 = CARTESIAN_POINT( '', ( 34.0000000000000, 0.000000000000000, 100.000000000000 ) );
#195 = DIRECTION( '', ( 0.000000000000000, -0.000000000000000, 1.00000000000000 ) );
#196 = DIRECTION( '', ( -1.00000000000000, 0.000000000000000, 0.000000000000000 ) );
#197 = ORIENTED_EDGE( '', *, *, #212, .T. );
#198 = ORIENTED_EDGE( '', *, *, #209, .F. );
#199 = CARTESIAN_POINT( '', ( -34.0000000000000, 0.000000000000000, 93.0000000000000 ) );
#200 = DIRECTION( '', ( 0.000000000000000, 0.000000000000000, 1.00000000000000 ) );
#201 = DIRECTION( '', ( 1.00000000000000, -0.000000000000000, 0.000000000000000 ) );
#202 = EDGE_CURVE( '', #213, #213, #214, .T. );
#203 = EDGE_CURVE( '', #215, #215, #216, .T. );
#204 = EDGE_CURVE( '', #217, #217, #218, .T. );
#205 = EDGE_CURVE( '', #219, #219, #220, .T. );
#206 = EDGE_CURVE( '', #221, #221, #222, .T. );
#207 = EDGE_CURVE( '', #223, #223, #224, .T. );
#208 = EDGE_CURVE( '', #225, #225, #226, .T. );
#209 = EDGE_CURVE( '', #227, #227, #228, .T. );
#210 = EDGE_CURVE( '', #229, #229, #230, .T. );
#211 = EDGE_CURVE( '', #231, #231, #232, .T. );
#212 = EDGE_CURVE( '', #233, #233, #234, .T. );
#213 = VERTEX_POINT( '', #235 );
#214 = CIRCLE( '', #236, 3.25000000000000 );
#215 = VERTEX_POINT( '', #237 );
#216 = CIRCLE( '', #238, 3.25000000000000 );
#217 = VERTEX_POINT( '', #239 );
#218 = CIRCLE( '', #240, 43.4000000000000 );
#219 = VERTEX_POINT( '', #241 );
#220 = CIRCLE( '', #242, 6.00000000000000 );
#221 = VERTEX_POINT( '', #243 );
#222 = CIRCLE( '', #244, 5.99999999999999 );
#223 = VERTEX_POINT( '', #245 );
#224 = CIRCLE( '', #246, 47.4000000000000 );
#225 = VERTEX_POINT( '', #247 );
#226 = CIRCLE( '', #248, 3.25000000000000 );
#227 = VERTEX_POINT( '', #249 );
#228 = CIRCLE( '', #250, 3.25000000000000 );
#229 = VERTEX_POINT( '', #251 );
#230 = CIRCLE( '', #252, 47.4000000000000 );
#231 = VERTEX_POINT( '', #253 );
#232 = CIRCLE( '', #254, 6.00000000000000 );
#233 = VERTEX_POINT( '', #255 );
#234 = CIRCLE( '', #256, 5.99999999999999 );
#235 = CARTESIAN_POINT( '', ( 37.2500000000000, 0.000000000000000, 90.0000000000000 ) );
#236 = AXIS2_PLACEMENT_3D( '', #257, #258, #259 );
#237 = CARTESIAN_POINT( '', ( 37.2500000000000, 0.000000000000000, 93.0000000000000 ) );
#238 = AXIS2_PLACEMENT_3D( '', #260, #261, #262 );
#239 = CARTESIAN_POINT( '', ( 43.4000000000000, 0.000000000000000, 100.000000000000 ) );
#240 = AXIS2_PLACEMENT_3D( '', #263, #264, #265 );
#241 = CARTESIAN_POINT( '', ( 40.0000000000000, 0.000000000000000, 100.000000000000 ) );
#242 = AXIS2_PLACEMENT_3D( '', #266, #267, #268 );
#243 = CARTESIAN_POINT( '', ( -28.0000000000000, 0.000000000000000, 100.000000000000 ) );
#244 = AXIS2_PLACEMENT_3D( '', #269, #270, #271 );
#245 = CARTESIAN_POINT( '', ( 47.4000000000000, 0.000000000000000, 96.0000000000000 ) );
#246 = AXIS2_PLACEMENT_3D( '', #272, #273, #274 );
#247 = CARTESIAN_POINT( '', ( -30.7500000000000, 0.000000000000000, 90.0000000000000 ) );
#248 = AXIS2_PLACEMENT_3D( '', #275, #276, #277 );
#249 = CARTESIAN_POINT( '', ( -30.7500000000000, 0.000000000000000, 93.0000000000000 ) );
#250 = AXIS2_PLACEMENT_3D( '', #278, #279, #280 );
#251 = CARTESIAN_POINT( '', ( 47.4000000000000, 0.000000000000000, 90.0000000000000 ) );
#252 = AXIS2_PLACEMENT_3D( '', #281, #282, #283 );
#253 = CARTESIAN_POINT( '', ( 40.0000000000000, 0.000000000000000, 93.0000000000000 ) );
#254 = AXIS2_PLACEMENT_3D( '', #284, #285, #286 );
#255 = CARTESIAN_POINT( '', ( -28.0000000000000, 0.000000000000000, 93.0000000000000 ) );
#256 = AXIS2_PLACEMENT_3D( '', #287, #288, #289 );
#257 = CARTESIAN_POINT( '', ( 34.0000000000000, 0.000000000000000, 90.0000000000000 ) );
#258 = DIRECTION( '', ( 0.000000000000000, 0.000000000000000, -1.00000000000000 ) );
#259 = DIRECTION( '', ( 1.00000000000000, 0.000000000000000, 0.000000000000000 ) );
#260 = CARTESIAN_POINT( '', ( 34.0000000000000, 0.000000000000000, 93.0000000000000 ) );
#261 = DIRECTION( '', ( 0.000000000000000, 0.000000000000000, 1.00000000000000 ) );
#262 = DIRECTION( '', ( 1.00000000000000, 0.000000000000000, -0.000000000000000 ) );
#263 = CARTESIAN_POINT( '', ( 0.000000000000000, 0.000000000000000, 100.000000000000 ) );
#264 = DIRECTION( '', ( 0.000000000000000, 0.000000000000000, 1.00000000000000 ) );
#265 = DIRECTION( '', ( 1.00000000000000, 0.000000000000000, -0.000000000000000 ) );
#266 = CARTESIAN_POINT( '', ( 34.0000000000000, 0.000000000000000, 100.000000000000 ) );
#267 = DIRECTION( '', ( 0.000000000000000, 0.000000000000000, 1.00000000000000 ) );
#268 = DIRECTION( '', ( 1.00000000000000, 0.000000000000000, 0.000000000000000 ) );
#269 = CARTESIAN_POINT( '', ( -34.0000000000000, 0.000000000000000, 100.000000000000 ) );
#270 = DIRECTION( '', ( 0.000000000000000, 0.000000000000000, 1.00000000000000 ) );
#271 = DIRECTION( '', ( 1.00000000000000, 0.000000000000000, 0.000000000000000 ) );
#272 = CARTESIAN_POINT( '', ( 0.000000000000000, 0.000000000000000, 96.0000000000000 ) );
#273 = DIRECTION( '', ( 0.000000000000000, 0.000000000000000, -1.00000000000000 ) );
#274 = DIRECTION( '', ( 1.00000000000000, 0.000000000000000, 0.000000000000000 ) );
#275 = CARTESIAN_POINT( '', ( -34.0000000000000, 0.000000000000000, 90.0000000000000 ) );
#276 = DIRECTION( '', ( 0.000000000000000, 0.000000000000000, -1.00000000000000 ) );
#277 = DIRECTION( '', ( 1.00000000000000, 0.000000000000000, 0.000000000000000 ) );
#278 = CARTESIAN_POINT( '', ( -34.0000000000000, 0.000000000000000, 93.0000000000000 ) );
#279 = DIRECTION( '', ( 0.000000000000000, 0.000000000000000, 1.00000000000000 ) );
#280 = DIRECTION( '', ( 1.00000000000000, 0.000000000000000, -0.000000000000000 ) );
#281 = CARTESIAN_POINT( '', ( 0.000000000000000, 0.000000000000000, 90.0000000000000 ) );
#282 = DIRECTION( '', ( 0.000000000000000, 0.000000000000000, 1.00000000000000 ) );
#283 = DIRECTION( '', ( 1.00000000000000, 0.000000000000000, 0.000000000000000 ) );
#284 = CARTESIAN_POINT( '', ( 34.0000000000000, 0.000000000000000, 93.0000000000000 ) );
#285 = DIRECTION( '', ( 0.000000000000000, 0.000000000000000, 1.00000000000000 ) );
#286 = DIRECTION( '', ( 1.00000000000000, 0.000000000000000, 0.000000000000000 ) );
#287 = CARTESIAN_POINT( '', ( -34.0000000000000, 0.000000000000000, 93.0000000000000 ) );
#288 = DIRECTION( '', ( 0.000000000000000, 0.000000000000000, 1.00000000000000 ) );
#289 = DIRECTION( '', ( 1.00000000000000, 0.000000000000000, 0.000000000000000 ) );
ENDSEC;
END-ISO-10303-21;
