ISO-10303-21;
HEADER;
FILE_DESCRIPTION (( 'STEP AP214' ),
    '1' );
FILE_NAME ('Cintreur phare.STEP',
    '2019-04-28T08:55:36',
    ( '' ),
    ( '' ),
    'SwSTEP 2.0',
    'SolidWorks 2018',
    '' );
FILE_SCHEMA (( 'AUTOMOTIVE_DESIGN' ));
ENDSEC;

DATA;
#1 = MECHANICAL_DESIGN_GEOMETRIC_PRESENTATION_REPRESENTATION (  '', ( #39 ), #21 ) ;
#2 = AXIS2_PLACEMENT_3D ( 'NONE', #247, #336, #152 ) ;
#3 = EDGE_LOOP ( 'NONE', ( #226, #285, #197, #18 ) ) ;
#4 = LINE ( 'NONE', #166, #328 ) ;
#5 = EDGE_CURVE ( 'NONE', #369, #93, #190, .T. ) ;
#6 = EDGE_CURVE ( 'NONE', #364, #116, #52, .T. ) ;
#7 = DIRECTION ( 'NONE',  ( -0.0000000000000000000, -1.000000000000000000, -0.0000000000000000000 ) ) ;
#8 = PRODUCT_DEFINITION_CONTEXT ( 'detailed design', #159, 'design' ) ;
#9 = DIRECTION ( 'NONE',  ( 0.0000000000000000000, 1.000000000000000000, 0.0000000000000000000 ) ) ;
#10 = VERTEX_POINT ( 'NONE', #163 ) ;
#11 = CARTESIAN_POINT ( 'NONE',  ( -33.15584413040937761, 0.0000000000000000000, 15.50000000000000000 ) ) ;
#12 = FACE_OUTER_BOUND ( 'NONE', #319, .T. ) ;
#13 = CARTESIAN_POINT ( 'NONE',  ( 0.0000000000000000000, 10.00000000000000000, 0.0000000000000000000 ) ) ;
#14 = ADVANCED_FACE ( 'NONE', ( #308 ), #162, .F. ) ;
#15 = CIRCLE ( 'NONE', #59, 36.60000000000002274 ) ;
#16 = DIRECTION ( 'NONE',  ( -1.776356839400250465E-15, 0.0000000000000000000, 1.000000000000000000 ) ) ;
#17 =( LENGTH_UNIT ( ) NAMED_UNIT ( * ) SI_UNIT ( .MILLI., .METRE. ) );
#18 = ORIENTED_EDGE ( 'NONE', *, *, #256, .F. ) ;
#19 = FACE_OUTER_BOUND ( 'NONE', #92, .T. ) ;
#20 = DIRECTION ( 'NONE',  ( 1.000000000000000000, 0.0000000000000000000, 0.0000000000000000000 ) ) ;
#21 =( GEOMETRIC_REPRESENTATION_CONTEXT ( 3 ) GLOBAL_UNCERTAINTY_ASSIGNED_CONTEXT ( ( #265 ) ) GLOBAL_UNIT_ASSIGNED_CONTEXT ( ( #251, #281, #253 ) ) REPRESENTATION_CONTEXT ( 'NONE', 'WORKASPACE' ) );
#22 = ORIENTED_EDGE ( 'NONE', *, *, #96, .T. ) ;
#23 = VECTOR ( 'NONE', #271, 1000.000000000000000 ) ;
#24 =( GEOMETRIC_REPRESENTATION_CONTEXT ( 3 ) GLOBAL_UNCERTAINTY_ASSIGNED_CONTEXT ( ( #371 ) ) GLOBAL_UNIT_ASSIGNED_CONTEXT ( ( #17, #221, #219 ) ) REPRESENTATION_CONTEXT ( 'NONE', 'WORKASPACE' ) );
#25 = EDGE_LOOP ( 'NONE', ( #293, #290, #327, #75, #367 ) ) ;
#26 = DIRECTION ( 'NONE',  ( 0.0000000000000000000, -0.0000000000000000000, 1.000000000000000000 ) ) ;
#27 = CARTESIAN_POINT ( 'NONE',  ( -33.59687485466467649, 0.3999999999999844791, 15.50000000000000000 ) ) ;
#28 = CIRCLE ( 'NONE', #114, 37.00000000000000000 ) ;
#29 = DIRECTION ( 'NONE',  ( 0.0000000000000000000, -0.0000000000000000000, 1.000000000000000000 ) ) ;
#30 = DIRECTION ( 'NONE',  ( -0.0000000000000000000, -1.000000000000000000, -0.0000000000000000000 ) ) ;
#31 = AXIS2_PLACEMENT_3D ( 'NONE', #357, #204, #83 ) ;
#32 = ORIENTED_EDGE ( 'NONE', *, *, #345, .T. ) ;
#33 = COLOUR_RGB ( '',0.7921568627450980005, 0.8196078431372548767, 0.9333333333333333481 ) ;
#34 = B_SPLINE_CURVE_WITH_KNOTS ( 'NONE', 3,
 ( #63, #280, #275, #274 ),
 .UNSPECIFIED., .F., .F.,
 ( 4, 4 ),
 ( 0.1432850882799863168, 0.1438663157507887036 ),
 .UNSPECIFIED. ) ;
#35 =( LENGTH_UNIT ( ) NAMED_UNIT ( * ) SI_UNIT ( .MILLI., .METRE. ) );
#36 = ORIENTED_EDGE ( 'NONE', *, *, #345, .F. ) ;
#37 = DIRECTION ( 'NONE',  ( -0.0000000000000000000, 1.000000000000000000, -0.0000000000000000000 ) ) ;
#38 = EDGE_CURVE ( 'NONE', #154, #169, #378, .T. ) ;
#39 = STYLED_ITEM ( 'NONE', ( #101 ), #180 ) ;
#40 = DIRECTION ( 'NONE',  ( 0.0000000000000000000, -0.0000000000000000000, 1.000000000000000000 ) ) ;
#41 = CARTESIAN_POINT ( 'NONE',  ( 0.0000000000000000000, 0.3999999999999837019, 0.0000000000000000000 ) ) ;
#42 = ORIENTED_EDGE ( 'NONE', *, *, #117, .T. ) ;
#43 = LINE ( 'NONE', #139, #217 ) ;
#44 = AXIS2_PLACEMENT_3D ( 'NONE', #176, #7, #237 ) ;
#45 = B_SPLINE_CURVE_WITH_KNOTS ( 'NONE', 3,
 ( #79, #173, #171, #261 ),
 .UNSPECIFIED., .F., .F.,
 ( 4, 4 ),
 ( 0.06412043037347062158, 0.06471581998749105502 ),
 .UNSPECIFIED. ) ;
#46 = EDGE_CURVE ( 'NONE', #211, #104, #57, .T. ) ;
#47 = EDGE_LOOP ( 'NONE', ( #123, #350, #160 ) ) ;
#48 = ADVANCED_FACE ( 'NONE', ( #142 ), #135, .T. ) ;
#49 = SURFACE_STYLE_USAGE ( .BOTH. , #366 ) ;
#50 = ORIENTED_EDGE ( 'NONE', *, *, #126, .F. ) ;
#51 = EDGE_CURVE ( 'NONE', #116, #211, #28, .T. ) ;
#52 = LINE ( 'NONE', #129, #100 ) ;
#53 = DIRECTION ( 'NONE',  ( -1.000000000000000000, -0.0000000000000000000, -0.0000000000000000000 ) ) ;
#54 = VECTOR ( 'NONE', #94, 1000.000000000000000 ) ;
#55 = DIRECTION ( 'NONE',  ( 0.0000000000000000000, 0.0000000000000000000, 1.000000000000000000 ) ) ;
#56 = MANIFOLD_SOLID_BREP ( 'Cut-Extrude1[2]', #230 ) ;
#57 = CIRCLE ( 'NONE', #78, 37.00000000000000000 ) ;
#58 = DIRECTION ( 'NONE',  ( 0.0000000000000000000, 0.0000000000000000000, -1.000000000000000000 ) ) ;
#59 = AXIS2_PLACEMENT_3D ( 'NONE', #90, #124, #16 ) ;
#60 = ORIENTED_EDGE ( 'NONE', *, *, #244, .T. ) ;
#61 =( NAMED_UNIT ( * ) PLANE_ANGLE_UNIT ( ) SI_UNIT ( $, .RADIAN. ) );
#62 = PLANE ( 'NONE',  #288 ) ;
#63 = CARTESIAN_POINT ( 'NONE',  ( -33.15584413040937761, 0.0000000000000000000, 15.50000000000000000 ) ) ;
#64 = ORIENTED_EDGE ( 'NONE', *, *, #5, .F. ) ;
#65 = FACE_OUTER_BOUND ( 'NONE', #97, .T. ) ;
#66 = DIRECTION ( 'NONE',  ( 0.0000000000000000000, 0.0000000000000000000, 1.000000000000000000 ) ) ;
#67 = CARTESIAN_POINT ( 'NONE',  ( 0.0000000000000000000, 10.00000000000000000, 0.0000000000000000000 ) ) ;
#68 = EDGE_CURVE ( 'NONE', #178, #154, #4, .T. ) ;
#69 = ORIENTED_EDGE ( 'NONE', *, *, #117, .F. ) ;
#70 =( GEOMETRIC_REPRESENTATION_CONTEXT ( 3 ) GLOBAL_UNCERTAINTY_ASSIGNED_CONTEXT ( ( #120 ) ) GLOBAL_UNIT_ASSIGNED_CONTEXT ( ( #374, #292, #229 ) ) REPRESENTATION_CONTEXT ( 'NONE', 'WORKASPACE' ) );
#71 = CARTESIAN_POINT ( 'NONE',  ( 0.0000000000000000000, 0.0000000000000000000, 0.0000000000000000000 ) ) ;
#72 = ORIENTED_EDGE ( 'NONE', *, *, #214, .T. ) ;
#73 = ORIENTED_EDGE ( 'NONE', *, *, #248, .F. ) ;
#74 = CARTESIAN_POINT ( 'NONE',  ( 0.0000000000000000000, 0.0000000000000000000, 0.0000000000000000000 ) ) ;
#75 = ORIENTED_EDGE ( 'NONE', *, *, #244, .F. ) ;
#76 = DIRECTION ( 'NONE',  ( -0.0000000000000000000, -1.000000000000000000, -0.0000000000000000000 ) ) ;
#77 = ORIENTED_EDGE ( 'NONE', *, *, #96, .F. ) ;
#78 = AXIS2_PLACEMENT_3D ( 'NONE', #322, #193, #55 ) ;
#79 = CARTESIAN_POINT ( 'NONE',  ( -33.59687485466470491, 0.3999999999999801492, -15.50000000000000000 ) ) ;
#80 = PRODUCT_DEFINITION_SHAPE ( 'NONE', 'NONE',  #168 ) ;
#81 = ORIENTED_EDGE ( 'NONE', *, *, #305, .F. ) ;
#82 = EDGE_CURVE ( 'NONE', #169, #93, #45, .T. ) ;
#83 = DIRECTION ( 'NONE',  ( -1.000000000000000000, 0.0000000000000000000, -0.0000000000000000000 ) ) ;
#84 = FACE_OUTER_BOUND ( 'NONE', #132, .T. ) ;
#85 = EDGE_CURVE ( 'NONE', #315, #154, #317, .T. ) ;
#86 = SURFACE_SIDE_STYLE ('',( #227 ) ) ;
#87 = AXIS2_PLACEMENT_3D ( 'NONE', #234, #201, #111 ) ;
#88 = EDGE_CURVE ( 'NONE', #104, #272, #358, .T. ) ;
#89 = CARTESIAN_POINT ( 'NONE',  ( 0.0000000000000000000, 0.3999999999999837019, 37.00000000000000000 ) ) ;
#90 = CARTESIAN_POINT ( 'NONE',  ( 0.0000000000000000000, 0.0000000000000000000, 0.0000000000000000000 ) ) ;
#91 = CARTESIAN_POINT ( 'NONE',  ( 33.59687485466466939, 10.00000000000000000, -15.50000000000000000 ) ) ;
#92 = EDGE_LOOP ( 'NONE', ( #354, #64, #60, #69, #189, #36 ) ) ;
#93 = VERTEX_POINT ( 'NONE', #379 ) ;
#94 = DIRECTION ( 'NONE',  ( 0.0000000000000000000, 1.000000000000000000, 0.0000000000000000000 ) ) ;
#95 = AXIS2_PLACEMENT_3D ( 'NONE', #67, #341, #185 ) ;
#96 = EDGE_CURVE ( 'NONE', #104, #343, #301, .T. ) ;
#97 = EDGE_LOOP ( 'NONE', ( #50, #174 ) ) ;
#98 =( GEOMETRIC_REPRESENTATION_CONTEXT ( 3 ) GLOBAL_UNCERTAINTY_ASSIGNED_CONTEXT ( ( #360 ) ) GLOBAL_UNIT_ASSIGNED_CONTEXT ( ( #35, #61, #198 ) ) REPRESENTATION_CONTEXT ( 'NONE', 'WORKASPACE' ) );
#99 = ORIENTED_EDGE ( 'NONE', *, *, #210, .T. ) ;
#100 = VECTOR ( 'NONE', #76, 1000.000000000000000 ) ;
#101 = PRESENTATION_STYLE_ASSIGNMENT (( #49 ) ) ;
#102 = CARTESIAN_POINT ( 'NONE',  ( 33.59687485466470491, 0.3999999999999801492, 15.50000000000000000 ) ) ;
#103 = CARTESIAN_POINT ( 'NONE',  ( 33.44994129566671148, 0.2665808542268683912, 15.50000000000000000 ) ) ;
#104 = VERTEX_POINT ( 'NONE', #351 ) ;
#105 = MECHANICAL_DESIGN_GEOMETRIC_PRESENTATION_REPRESENTATION (  '', ( #353 ), #98 ) ;
#106 = DIRECTION ( 'NONE',  ( 0.0000000000000000000, 1.000000000000000000, 0.0000000000000000000 ) ) ;
#107 = MECHANICAL_DESIGN_GEOMETRIC_PRESENTATION_REPRESENTATION (  '', ( #136 ), #70 ) ;
#108 = DIRECTION ( 'NONE',  ( -0.0000000000000000000, -1.000000000000000000, -0.0000000000000000000 ) ) ;
#109 = ORIENTED_EDGE ( 'NONE', *, *, #6, .F. ) ;
#110 = FILL_AREA_STYLE ('',( #149 ) ) ;
#111 = DIRECTION ( 'NONE',  ( 0.0000000000000000000, -0.0000000000000000000, 1.000000000000000000 ) ) ;
#112 = CONICAL_SURFACE ( 'NONE', #330, 37.00000000000000000, 0.7853981633974396193 ) ;
#113 = DIRECTION ( 'NONE',  ( 1.000000000000000000, 0.0000000000000000000, 0.0000000000000000000 ) ) ;
#114 = AXIS2_PLACEMENT_3D ( 'NONE', #349, #295, #291 ) ;
#115 = CARTESIAN_POINT ( 'NONE',  ( 0.0000000000000000000, 0.0000000000000000000, 0.0000000000000000000 ) ) ;
#116 = VERTEX_POINT ( 'NONE', #27 ) ;
#117 = EDGE_CURVE ( 'NONE', #255, #315, #43, .T. ) ;
#118 = CARTESIAN_POINT ( 'NONE',  ( 0.0000000000000000000, 0.0000000000000000000, 36.60000000000002274 ) ) ;
#119 = DIRECTION ( 'NONE',  ( -0.0000000000000000000, -1.000000000000000000, -0.0000000000000000000 ) ) ;
#120 = UNCERTAINTY_MEASURE_WITH_UNIT (LENGTH_MEASURE( 1.000000000000000082E-05 ), #374, 'distance_accuracy_value', 'NONE');
#121 = CARTESIAN_POINT ( 'NONE',  ( 0.0000000000000000000, 10.00000000000000000, 0.0000000000000000000 ) ) ;
#122 = ADVANCED_FACE ( 'NONE', ( #12 ), #266, .F. ) ;
#123 = ORIENTED_EDGE ( 'NONE', *, *, #199, .F. ) ;
#124 = DIRECTION ( 'NONE',  ( -0.0000000000000000000, -1.000000000000000000, -0.0000000000000000000 ) ) ;
#125 = VECTOR ( 'NONE', #299, 1000.000000000000000 ) ;
#126 = EDGE_CURVE ( 'NONE', #364, #343, #231, .T. ) ;
#127 = CARTESIAN_POINT ( 'NONE',  ( 33.59687485466466939, 10.00000000000000000, 15.50000000000000000 ) ) ;
#128 = FILL_AREA_STYLE ('',( #309 ) ) ;
#129 = CARTESIAN_POINT ( 'NONE',  ( -33.59687485466467649, 10.00000000000000000, 15.50000000000000000 ) ) ;
#130 = AXIS2_PLACEMENT_3D ( 'NONE', #212, #9, #278 ) ;
#131 = ORIENTED_EDGE ( 'NONE', *, *, #177, .T. ) ;
#132 = EDGE_LOOP ( 'NONE', ( #72, #164 ) ) ;
#133 = CIRCLE ( 'NONE', #218, 37.00000000000000000 ) ;
#134 = CARTESIAN_POINT ( 'NONE',  ( -37.32522345436339606, 0.0000000000000000000, -15.50000000000000000 ) ) ;
#135 = PLANE ( 'NONE',  #296 ) ;
#136 = STYLED_ITEM ( 'NONE', ( #286 ), #56 ) ;
#137 = ORIENTED_EDGE ( 'NONE', *, *, #348, .T. ) ;
#138 = CARTESIAN_POINT ( 'NONE',  ( 33.15584413040937761, 0.0000000000000000000, 15.50000000000000000 ) ) ;
#139 = CARTESIAN_POINT ( 'NONE',  ( 33.59687485466467649, 10.00000000000000000, -15.50000000000000000 ) ) ;
#140 = DIRECTION ( 'NONE',  ( 0.0000000000000000000, 0.0000000000000000000, 1.000000000000000000 ) ) ;
#141 = VERTEX_POINT ( 'NONE', #118 ) ;
#142 = FACE_OUTER_BOUND ( 'NONE', #47, .T. ) ;
#143 = VECTOR ( 'NONE', #300, 1000.000000000000000 ) ;
#144 = PLANE ( 'NONE',  #87 ) ;
#145 = CARTESIAN_POINT ( 'NONE',  ( 0.0000000000000000000, 10.00000000000000000, 0.0000000000000000000 ) ) ;
#146 = ORIENTED_EDGE ( 'NONE', *, *, #51, .T. ) ;
#147 = PRESENTATION_STYLE_ASSIGNMENT (( #298 ) ) ;
#148 = CARTESIAN_POINT ( 'NONE',  ( 0.0000000000000000000, 0.3999999999999837019, 37.00000000000000000 ) ) ;
#149 = FILL_AREA_STYLE_COLOUR ( '', #158 ) ;
#150 = CARTESIAN_POINT ( 'NONE',  ( -37.32522345436339606, 0.0000000000000000000, 15.50000000000000000 ) ) ;
#151 = AXIS2_PLACEMENT_3D ( 'NONE', #71, #220, #20 ) ;
#152 = DIRECTION ( 'NONE',  ( 0.0000000000000000000, 0.0000000000000000000, 1.000000000000000000 ) ) ;
#153 = EDGE_LOOP ( 'NONE', ( #161, #258, #42, #254 ) ) ;
#154 = VERTEX_POINT ( 'NONE', #302 ) ;
#155 = ADVANCED_FACE ( 'NONE', ( #84 ), #144, .F. ) ;
#156 = DIRECTION ( 'NONE',  ( 0.0000000000000000000, 0.0000000000000000000, 1.000000000000000000 ) ) ;
#157 = ORIENTED_EDGE ( 'NONE', *, *, #38, .T. ) ;
#158 = COLOUR_RGB ( '',0.7921568627450980005, 0.8196078431372548767, 0.9333333333333333481 ) ;
#159 = APPLICATION_CONTEXT ( 'automotive_design' ) ;
#160 = ORIENTED_EDGE ( 'NONE', *, *, #232, .T. ) ;
#161 = ORIENTED_EDGE ( 'NONE', *, *, #68, .F. ) ;
#162 = PLANE ( 'NONE',  #321 ) ;
#163 = CARTESIAN_POINT ( 'NONE',  ( -33.59687485466467649, 10.00000000000000000, -15.50000000000000000 ) ) ;
#164 = ORIENTED_EDGE ( 'NONE', *, *, #5, .T. ) ;
#165 = CIRCLE ( 'NONE', #338, 36.60000000000002274 ) ;
#166 = CARTESIAN_POINT ( 'NONE',  ( 0.0000000000000000000, 10.00000000000000000, -37.00000000000000000 ) ) ;
#167 = CARTESIAN_POINT ( 'NONE',  ( 33.59687485466467649, 10.00000000000000000, 15.50000000000000000 ) ) ;
#168 = PRODUCT_DEFINITION ( 'UNKNOWN', '', #186, #8 ) ;
#169 = VERTEX_POINT ( 'NONE', #235 ) ;
#170 = FACE_OUTER_BOUND ( 'NONE', #223, .T. ) ;
#171 = CARTESIAN_POINT ( 'NONE',  ( -33.30293197370615843, 0.1332464919624701816, -15.50000000000000000 ) ) ;
#172 = FILL_AREA_STYLE ('',( #259 ) ) ;
#173 = CARTESIAN_POINT ( 'NONE',  ( -33.44994129566670438, 0.2665808542268613968, -15.50000000000000000 ) ) ;
#174 = ORIENTED_EDGE ( 'NONE', *, *, #248, .T. ) ;
#175 = SURFACE_STYLE_FILL_AREA ( #172 ) ;
#176 = CARTESIAN_POINT ( 'NONE',  ( 0.0000000000000000000, 0.0000000000000000000, 0.0000000000000000000 ) ) ;
#177 = EDGE_CURVE ( 'NONE', #141, #370, #165, .T. ) ;
#178 = VERTEX_POINT ( 'NONE', #206 ) ;
#179 = CARTESIAN_POINT ( 'NONE',  ( 33.59687485466467649, 0.3999999999999848121, -15.50000000000000000 ) ) ;
#180 = ADVANCED_BREP_SHAPE_REPRESENTATION ( 'Cintreur phare', ( #207, #56, #151 ), #24 ) ;
#181 = CARTESIAN_POINT ( 'NONE',  ( 33.30292766971823681, 0.1332425929910840690, -15.50000000000000000 ) ) ;
#182 = VECTOR ( 'NONE', #53, 1000.000000000000000 ) ;
#183 = CYLINDRICAL_SURFACE ( 'NONE', #257, 37.00000000000000000 ) ;
#184 = ADVANCED_FACE ( 'NONE', ( #170 ), #320, .T. ) ;
#185 = DIRECTION ( 'NONE',  ( 0.0000000000000000000, 0.0000000000000000000, 1.000000000000000000 ) ) ;
#186 = PRODUCT_DEFINITION_FORMATION_WITH_SPECIFIED_SOURCE ( 'ANY', '', #242, .NOT_KNOWN. ) ;
#187 = ADVANCED_FACE ( 'NONE', ( #19 ), #329, .F. ) ;
#188 = ORIENTED_EDGE ( 'NONE', *, *, #348, .F. ) ;
#189 = ORIENTED_EDGE ( 'NONE', *, *, #199, .T. ) ;
#190 = LINE ( 'NONE', #134, #182 ) ;
#191 = SURFACE_SIDE_STYLE ('',( #175 ) ) ;
#192 = PRESENTATION_LAYER_ASSIGNMENT (  '', '', ( #136 ) ) ;
#193 = DIRECTION ( 'NONE',  ( -0.0000000000000000000, 1.000000000000000000, -0.0000000000000000000 ) ) ;
#194 = DIRECTION ( 'NONE',  ( 0.0000000000000000000, 1.000000000000000000, 0.0000000000000000000 ) ) ;
#195 = CARTESIAN_POINT ( 'NONE',  ( 0.0000000000000000000, 0.3999999999999837019, 0.0000000000000000000 ) ) ;
#196 = PRODUCT_RELATED_PRODUCT_CATEGORY ( 'part', '', ( #242 ) ) ;
#197 = ORIENTED_EDGE ( 'NONE', *, *, #51, .F. ) ;
#198 =( NAMED_UNIT ( * ) SI_UNIT ( $, .STERADIAN. ) SOLID_ANGLE_UNIT ( ) );
#199 = EDGE_CURVE ( 'NONE', #255, #10, #344, .T. ) ;
#200 = FACE_OUTER_BOUND ( 'NONE', #153, .T. ) ;
#201 = DIRECTION ( 'NONE',  ( 0.0000000000000000000, 1.000000000000000000, 0.0000000000000000000 ) ) ;
#202 = AXIS2_PLACEMENT_3D ( 'NONE', #355, #332, #216 ) ;
#203 = CONICAL_SURFACE ( 'NONE', #2, 37.00000000000000000, 0.7853981633974396193 ) ;
#204 = DIRECTION ( 'NONE',  ( 0.0000000000000000000, 0.0000000000000000000, -1.000000000000000000 ) ) ;
#205 = CARTESIAN_POINT ( 'NONE',  ( -37.32522345436339606, 10.00000000000000000, -15.50000000000000000 ) ) ;
#206 = CARTESIAN_POINT ( 'NONE',  ( 0.0000000000000000000, 10.00000000000000000, -37.00000000000000000 ) ) ;
#207 = MANIFOLD_SOLID_BREP ( 'Cut-Extrude1[1]', #323 ) ;
#208 = CARTESIAN_POINT ( 'NONE',  ( 33.15584413040937761, 0.0000000000000000000, 15.50000000000000000 ) ) ;
#209 = B_SPLINE_CURVE_WITH_KNOTS ( 'NONE', 3,
 ( #306, #181, #337, #179 ),
 .UNSPECIFIED., .F., .F.,
 ( 4, 4 ),
 ( 0.1432850882799863168, 0.1438663157507887036 ),
 .UNSPECIFIED. ) ;
#210 = EDGE_CURVE ( 'NONE', #370, #272, #380, .T. ) ;
#211 = VERTEX_POINT ( 'NONE', #148 ) ;
#212 = CARTESIAN_POINT ( 'NONE',  ( 0.0000000000000000000, 10.00000000000000000, 0.0000000000000000000 ) ) ;
#213 = VECTOR ( 'NONE', #245, 1000.000000000000000 ) ;
#214 = EDGE_CURVE ( 'NONE', #93, #369, #346, .T. ) ;
#215 = CONICAL_SURFACE ( 'NONE', #238, 37.00000000000000000, 0.7853981633974396193 ) ;
#216 = DIRECTION ( 'NONE',  ( 0.0000000000000000000, 0.0000000000000000000, -1.000000000000000000 ) ) ;
#217 = VECTOR ( 'NONE', #108, 1000.000000000000000 ) ;
#218 = AXIS2_PLACEMENT_3D ( 'NONE', #273, #359, #66 ) ;
#219 =( NAMED_UNIT ( * ) SI_UNIT ( $, .STERADIAN. ) SOLID_ANGLE_UNIT ( ) );
#220 = DIRECTION ( 'NONE',  ( 0.0000000000000000000, 0.0000000000000000000, 1.000000000000000000 ) ) ;
#221 =( NAMED_UNIT ( * ) PLANE_ANGLE_UNIT ( ) SI_UNIT ( $, .RADIAN. ) );
#222 = PRODUCT_CONTEXT ( 'NONE', #284, 'mechanical' ) ;
#223 = EDGE_LOOP ( 'NONE', ( #73, #282, #146, #316, #22 ) ) ;
#224 = CIRCLE ( 'NONE', #130, 37.00000000000000000 ) ;
#225 = CARTESIAN_POINT ( 'NONE',  ( 0.0000000000000000000, 10.00000000000000000, 0.0000000000000000000 ) ) ;
#226 = ORIENTED_EDGE ( 'NONE', *, *, #177, .F. ) ;
#227 = SURFACE_STYLE_FILL_AREA ( #110 ) ;
#228 = CARTESIAN_POINT ( 'NONE',  ( -37.32522345436339606, 0.0000000000000000000, 15.50000000000000000 ) ) ;
#229 =( NAMED_UNIT ( * ) SI_UNIT ( $, .STERADIAN. ) SOLID_ANGLE_UNIT ( ) );
#230 = CLOSED_SHELL ( 'NONE', ( #339, #342, #14, #252, #184, #122 ) ) ;
#231 = LINE ( 'NONE', #381, #125 ) ;
#232 = EDGE_CURVE ( 'NONE', #178, #10, #133, .T. ) ;
#233 = AXIS2_PLACEMENT_3D ( 'NONE', #289, #326, #140 ) ;
#234 = CARTESIAN_POINT ( 'NONE',  ( 0.0000000000000000000, 0.0000000000000000000, 0.0000000000000000000 ) ) ;
#235 = CARTESIAN_POINT ( 'NONE',  ( -33.59687485466470491, 0.3999999999999801492, -15.50000000000000000 ) ) ;
#236 = EDGE_LOOP ( 'NONE', ( #81, #188, #268, #377 ) ) ;
#237 = DIRECTION ( 'NONE',  ( 0.0000000000000000000, 0.0000000000000000000, 1.000000000000000000 ) ) ;
#238 = AXIS2_PLACEMENT_3D ( 'NONE', #365, #307, #156 ) ;
#239 = SURFACE_STYLE_FILL_AREA ( #128 ) ;
#240 = ORIENTED_EDGE ( 'NONE', *, *, #256, .T. ) ;
#241 = VECTOR ( 'NONE', #194, 1000.000000000000000 ) ;
#242 = PRODUCT ( 'Cintreur phare', 'Cintreur phare', '', ( #222 ) ) ;
#243 = DIRECTION ( 'NONE',  ( 0.0000000000000000000, 1.000000000000000000, 0.0000000000000000000 ) ) ;
#244 = EDGE_CURVE ( 'NONE', #369, #315, #209, .T. ) ;
#245 = DIRECTION ( 'NONE',  ( 0.0000000000000000000, 0.7071067811865536790, 0.7071067811865414665 ) ) ;
#246 = ADVANCED_FACE ( 'NONE', ( #200 ), #331, .T. ) ;
#247 = CARTESIAN_POINT ( 'NONE',  ( 0.0000000000000000000, 0.3999999999999837019, 0.0000000000000000000 ) ) ;
#248 = EDGE_CURVE ( 'NONE', #364, #343, #224, .T. ) ;
#249 = ORIENTED_EDGE ( 'NONE', *, *, #68, .T. ) ;
#250 = CARTESIAN_POINT ( 'NONE',  ( 33.59687485466467649, 0.3999999999999848121, -15.50000000000000000 ) ) ;
#251 =( LENGTH_UNIT ( ) NAMED_UNIT ( * ) SI_UNIT ( .MILLI., .METRE. ) );
#252 = ADVANCED_FACE ( 'NONE', ( #65 ), #62, .T. ) ;
#253 =( NAMED_UNIT ( * ) SI_UNIT ( $, .STERADIAN. ) SOLID_ANGLE_UNIT ( ) );
#254 = ORIENTED_EDGE ( 'NONE', *, *, #85, .T. ) ;
#255 = VERTEX_POINT ( 'NONE', #91 ) ;
#256 = EDGE_CURVE ( 'NONE', #370, #116, #34, .T. ) ;
#257 = AXIS2_PLACEMENT_3D ( 'NONE', #13, #119, #362 ) ;
#258 = ORIENTED_EDGE ( 'NONE', *, *, #375, .F. ) ;
#259 = FILL_AREA_STYLE_COLOUR ( '', #33 ) ;
#260 = EDGE_LOOP ( 'NONE', ( #324, #249, #157, #32 ) ) ;
#261 = CARTESIAN_POINT ( 'NONE',  ( -33.15584413040937761, 0.0000000000000000000, -15.50000000000000000 ) ) ;
#262 = DIRECTION ( 'NONE',  ( -0.0000000000000000000, 1.000000000000000000, -0.0000000000000000000 ) ) ;
#263 = EDGE_LOOP ( 'NONE', ( #137, #131, #99 ) ) ;
#264 = AXIS2_PLACEMENT_3D ( 'NONE', #195, #262, #376 ) ;
#265 = UNCERTAINTY_MEASURE_WITH_UNIT (LENGTH_MEASURE( 1.000000000000000082E-05 ), #251, 'distance_accuracy_value', 'NONE');
#266 = PLANE ( 'NONE',  #347 ) ;
#267 = DIRECTION ( 'NONE',  ( -0.0000000000000000000, -1.000000000000000000, -0.0000000000000000000 ) ) ;
#268 = ORIENTED_EDGE ( 'NONE', *, *, #88, .F. ) ;
#269 = DIRECTION ( 'NONE',  ( -0.0000000000000000000, -1.000000000000000000, -0.0000000000000000000 ) ) ;
#270 = COLOUR_RGB ( '',0.7921568627450980005, 0.8196078431372548767, 0.9333333333333333481 ) ;
#271 = DIRECTION ( 'NONE',  ( -1.000000000000000000, -0.0000000000000000000, -0.0000000000000000000 ) ) ;
#272 = VERTEX_POINT ( 'NONE', #208 ) ;
#273 = CARTESIAN_POINT ( 'NONE',  ( 0.0000000000000000000, 10.00000000000000000, 0.0000000000000000000 ) ) ;
#274 = CARTESIAN_POINT ( 'NONE',  ( -33.59687485466467649, 0.3999999999999844791, 15.50000000000000000 ) ) ;
#275 = CARTESIAN_POINT ( 'NONE',  ( -33.44993704688803859, 0.2665769962353691791, 15.50000000000000000 ) ) ;
#276 = ADVANCED_FACE ( 'NONE', ( #297 ), #183, .T. ) ;
#277 = CARTESIAN_POINT ( 'NONE',  ( -33.59687485466467649, 10.00000000000000000, -15.50000000000000000 ) ) ;
#278 = DIRECTION ( 'NONE',  ( 0.0000000000000000000, 0.0000000000000000000, 1.000000000000000000 ) ) ;
#279 = FACE_OUTER_BOUND ( 'NONE', #3, .T. ) ;
#280 = CARTESIAN_POINT ( 'NONE',  ( -33.30292766971823681, 0.1332425929910820706, 15.50000000000000000 ) ) ;
#281 =( NAMED_UNIT ( * ) PLANE_ANGLE_UNIT ( ) SI_UNIT ( $, .RADIAN. ) );
#282 = ORIENTED_EDGE ( 'NONE', *, *, #6, .T. ) ;
#283 = APPLICATION_PROTOCOL_DEFINITION ( 'draft international standard', 'automotive_design', 1998, #159 ) ;
#284 = APPLICATION_CONTEXT ( 'automotive_design' ) ;
#285 = ORIENTED_EDGE ( 'NONE', *, *, #305, .T. ) ;
#286 = PRESENTATION_STYLE_ASSIGNMENT (( #352 ) ) ;
#287 = DIRECTION ( 'NONE',  ( 0.0000000000000000000, 1.000000000000000000, 0.0000000000000000000 ) ) ;
#288 = AXIS2_PLACEMENT_3D ( 'NONE', #121, #243, #40 ) ;
#289 = CARTESIAN_POINT ( 'NONE',  ( 0.0000000000000000000, 0.3999999999999837019, 0.0000000000000000000 ) ) ;
#290 = ORIENTED_EDGE ( 'NONE', *, *, #38, .F. ) ;
#291 = DIRECTION ( 'NONE',  ( 0.0000000000000000000, 0.0000000000000000000, 1.000000000000000000 ) ) ;
#292 =( NAMED_UNIT ( * ) PLANE_ANGLE_UNIT ( ) SI_UNIT ( $, .RADIAN. ) );
#293 = ORIENTED_EDGE ( 'NONE', *, *, #82, .F. ) ;
#294 = ORIENTED_EDGE ( 'NONE', *, *, #210, .F. ) ;
#295 = DIRECTION ( 'NONE',  ( -0.0000000000000000000, 1.000000000000000000, -0.0000000000000000000 ) ) ;
#296 = AXIS2_PLACEMENT_3D ( 'NONE', #225, #106, #29 ) ;
#297 = FACE_OUTER_BOUND ( 'NONE', #260, .T. ) ;
#298 = SURFACE_STYLE_USAGE ( .BOTH. , #86 ) ;
#299 = DIRECTION ( 'NONE',  ( 1.000000000000000000, 0.0000000000000000000, 0.0000000000000000000 ) ) ;
#300 = DIRECTION ( 'NONE',  ( 1.000000000000000000, 0.0000000000000000000, 0.0000000000000000000 ) ) ;
#301 = LINE ( 'NONE', #167, #241 ) ;
#302 = CARTESIAN_POINT ( 'NONE',  ( 0.0000000000000000000, 0.3999999999999837019, -37.00000000000000000 ) ) ;
#303 = PRESENTATION_LAYER_ASSIGNMENT (  '', '', ( #39 ) ) ;
#304 = CIRCLE ( 'NONE', #95, 37.00000000000000000 ) ;
#305 = EDGE_CURVE ( 'NONE', #141, #211, #356, .T. ) ;
#306 = CARTESIAN_POINT ( 'NONE',  ( 33.15584413040937761, 0.0000000000000000000, -15.50000000000000000 ) ) ;
#307 = DIRECTION ( 'NONE',  ( -0.0000000000000000000, 1.000000000000000000, -0.0000000000000000000 ) ) ;
#308 = FACE_OUTER_BOUND ( 'NONE', #263, .T. ) ;
#309 = FILL_AREA_STYLE_COLOUR ( '', #270 ) ;
#310 = LINE ( 'NONE', #277, #54 ) ;
#311 = DIRECTION ( 'NONE',  ( 0.0000000000000000000, 0.0000000000000000000, 1.000000000000000000 ) ) ;
#312 = AXIS2_PLACEMENT_3D ( 'NONE', #145, #267, #58 ) ;
#313 = CARTESIAN_POINT ( 'NONE',  ( -33.59687485466467649, 10.00000000000000000, 15.50000000000000000 ) ) ;
#314 = ADVANCED_FACE ( 'NONE', ( #318 ), #112, .T. ) ;
#315 = VERTEX_POINT ( 'NONE', #250 ) ;
#316 = ORIENTED_EDGE ( 'NONE', *, *, #46, .T. ) ;
#317 = CIRCLE ( 'NONE', #233, 37.00000000000000000 ) ;
#318 = FACE_OUTER_BOUND ( 'NONE', #25, .T. ) ;
#319 = EDGE_LOOP ( 'NONE', ( #363, #294, #240, #109, #335, #77 ) ) ;
#320 = CYLINDRICAL_SURFACE ( 'NONE', #312, 37.00000000000000000 ) ;
#321 = AXIS2_PLACEMENT_3D ( 'NONE', #74, #287, #26 ) ;
#322 = CARTESIAN_POINT ( 'NONE',  ( 0.0000000000000000000, 0.3999999999999837019, 0.0000000000000000000 ) ) ;
#323 = CLOSED_SHELL ( 'NONE', ( #276, #246, #48, #155, #314, #187 ) ) ;
#324 = ORIENTED_EDGE ( 'NONE', *, *, #232, .F. ) ;
#325 = CARTESIAN_POINT ( 'NONE',  ( 33.30293197370616554, 0.1332464919624738175, 15.50000000000000000 ) ) ;
#326 = DIRECTION ( 'NONE',  ( -0.0000000000000000000, 1.000000000000000000, -0.0000000000000000000 ) ) ;
#327 = ORIENTED_EDGE ( 'NONE', *, *, #85, .F. ) ;
#328 = VECTOR ( 'NONE', #30, 1000.000000000000000 ) ;
#329 = PLANE ( 'NONE',  #31 ) ;
#330 = AXIS2_PLACEMENT_3D ( 'NONE', #41, #37, #311 ) ;
#331 = CYLINDRICAL_SURFACE ( 'NONE', #202, 37.00000000000000000 ) ;
#332 = DIRECTION ( 'NONE',  ( -0.0000000000000000000, -1.000000000000000000, -0.0000000000000000000 ) ) ;
#333 = DIRECTION ( 'NONE',  ( 0.0000000000000000000, 0.0000000000000000000, 1.000000000000000000 ) ) ;
#334 = DIRECTION ( 'NONE',  ( -0.0000000000000000000, 0.0000000000000000000, 1.000000000000000000 ) ) ;
#335 = ORIENTED_EDGE ( 'NONE', *, *, #126, .T. ) ;
#336 = DIRECTION ( 'NONE',  ( -0.0000000000000000000, 1.000000000000000000, -0.0000000000000000000 ) ) ;
#337 = CARTESIAN_POINT ( 'NONE',  ( 33.44993704688803859, 0.2665769962353716771, -15.50000000000000000 ) ) ;
#338 = AXIS2_PLACEMENT_3D ( 'NONE', #115, #269, #333 ) ;
#339 = ADVANCED_FACE ( 'NONE', ( #279 ), #215, .T. ) ;
#340 = FACE_OUTER_BOUND ( 'NONE', #236, .T. ) ;
#341 = DIRECTION ( 'NONE',  ( 0.0000000000000000000, 1.000000000000000000, 0.0000000000000000000 ) ) ;
#342 = ADVANCED_FACE ( 'NONE', ( #340 ), #203, .T. ) ;
#343 = VERTEX_POINT ( 'NONE', #127 ) ;
#344 = LINE ( 'NONE', #205, #23 ) ;
#345 = EDGE_CURVE ( 'NONE', #169, #10, #310, .T. ) ;
#346 = CIRCLE ( 'NONE', #44, 36.60000000000002274 ) ;
#347 = AXIS2_PLACEMENT_3D ( 'NONE', #228, #334, #113 ) ;
#348 = EDGE_CURVE ( 'NONE', #272, #141, #15, .T. ) ;
#349 = CARTESIAN_POINT ( 'NONE',  ( 0.0000000000000000000, 0.3999999999999837019, 0.0000000000000000000 ) ) ;
#350 = ORIENTED_EDGE ( 'NONE', *, *, #375, .T. ) ;
#351 = CARTESIAN_POINT ( 'NONE',  ( 33.59687485466470491, 0.3999999999999801492, 15.50000000000000000 ) ) ;
#352 = SURFACE_STYLE_USAGE ( .BOTH. , #191 ) ;
#353 = STYLED_ITEM ( 'NONE', ( #147 ), #207 ) ;
#354 = ORIENTED_EDGE ( 'NONE', *, *, #82, .T. ) ;
#355 = CARTESIAN_POINT ( 'NONE',  ( 0.0000000000000000000, 10.00000000000000000, 0.0000000000000000000 ) ) ;
#356 = LINE ( 'NONE', #89, #213 ) ;
#357 = CARTESIAN_POINT ( 'NONE',  ( -37.32522345436339606, 0.0000000000000000000, -15.50000000000000000 ) ) ;
#358 = B_SPLINE_CURVE_WITH_KNOTS ( 'NONE', 3,
 ( #102, #103, #325, #138 ),
 .UNSPECIFIED., .F., .F.,
 ( 4, 4 ),
 ( 0.06412043037347060770, 0.06471581998749104114 ),
 .UNSPECIFIED. ) ;
#359 = DIRECTION ( 'NONE',  ( 0.0000000000000000000, 1.000000000000000000, 0.0000000000000000000 ) ) ;
#360 = UNCERTAINTY_MEASURE_WITH_UNIT (LENGTH_MEASURE( 1.000000000000000082E-05 ), #35, 'distance_accuracy_value', 'NONE');
#361 = CARTESIAN_POINT ( 'NONE',  ( 33.15584413040937761, 0.0000000000000000000, -15.50000000000000000 ) ) ;
#362 = DIRECTION ( 'NONE',  ( 0.0000000000000000000, 0.0000000000000000000, -1.000000000000000000 ) ) ;
#363 = ORIENTED_EDGE ( 'NONE', *, *, #88, .T. ) ;
#364 = VERTEX_POINT ( 'NONE', #313 ) ;
#365 = CARTESIAN_POINT ( 'NONE',  ( 0.0000000000000000000, 0.3999999999999837019, 0.0000000000000000000 ) ) ;
#366 = SURFACE_SIDE_STYLE ('',( #239 ) ) ;
#367 = ORIENTED_EDGE ( 'NONE', *, *, #214, .F. ) ;
#368 = APPLICATION_PROTOCOL_DEFINITION ( 'draft international standard', 'automotive_design', 1998, #284 ) ;
#369 = VERTEX_POINT ( 'NONE', #361 ) ;
#370 = VERTEX_POINT ( 'NONE', #11 ) ;
#371 = UNCERTAINTY_MEASURE_WITH_UNIT (LENGTH_MEASURE( 1.000000000000000082E-05 ), #17, 'distance_accuracy_value', 'NONE');
#372 = PRESENTATION_LAYER_ASSIGNMENT (  '', '', ( #353 ) ) ;
#373 = SHAPE_DEFINITION_REPRESENTATION ( #80, #180 ) ;
#374 =( LENGTH_UNIT ( ) NAMED_UNIT ( * ) SI_UNIT ( .MILLI., .METRE. ) );
#375 = EDGE_CURVE ( 'NONE', #255, #178, #304, .T. ) ;
#376 = DIRECTION ( 'NONE',  ( 0.0000000000000000000, 0.0000000000000000000, 1.000000000000000000 ) ) ;
#377 = ORIENTED_EDGE ( 'NONE', *, *, #46, .F. ) ;
#378 = CIRCLE ( 'NONE', #264, 37.00000000000000000 ) ;
#379 = CARTESIAN_POINT ( 'NONE',  ( -33.15584413040937761, 0.0000000000000000000, -15.50000000000000000 ) ) ;
#380 = LINE ( 'NONE', #150, #143 ) ;
#381 = CARTESIAN_POINT ( 'NONE',  ( -37.32522345436339606, 10.00000000000000000, 15.50000000000000000 ) ) ;
ENDSEC;
END-ISO-10303-21;
