ISO-10303-21;
HEADER;
FILE_DESCRIPTION (( 'STEP AP214' ),
    '1' );
FILE_NAME ('Rondelle Gauche 10 mm serrage BBSHD sur cadre.STEP',
    '2019-04-15T20:04:46',
    ( '' ),
    ( '' ),
    'SwSTEP 2.0',
    'SolidWorks 2018',
    '' );
FILE_SCHEMA (( 'AUTOMOTIVE_DESIGN' ));
ENDSEC;

DATA;
#1 = VERTEX_POINT ( 'NONE', #214 ) ;
#2 = AXIS2_PLACEMENT_3D ( 'NONE', #389, #63, #32 ) ;
#3 = CARTESIAN_POINT ( 'NONE',  ( 0.0000000000000000000, 0.0000000000000000000, 23.50000000000000000 ) ) ;
#4 = ORIENTED_EDGE ( 'NONE', *, *, #199, .F. ) ;
#5 = CARTESIAN_POINT ( 'NONE',  ( -20.19999999999999929, 0.0000000000000000000, 23.50000000000000000 ) ) ;
#6 = DIRECTION ( 'NONE',  ( 1.000000000000000000, 0.0000000000000000000, -0.0000000000000000000 ) ) ;
#7 = AXIS2_PLACEMENT_3D ( 'NONE', #372, #272, #220 ) ;
#8 = PRESENTATION_STYLE_ASSIGNMENT (( #80 ) ) ;
#9 = LINE ( 'NONE', #244, #258 ) ;
#10 = LINE ( 'NONE', #222, #52 ) ;
#11 = AXIS2_PLACEMENT_3D ( 'NONE', #371, #156, #243 ) ;
#12 = ADVANCED_FACE ( 'NONE', ( #330 ), #31, .F. ) ;
#13 = PRODUCT_CONTEXT ( 'NONE', #142, 'mechanical' ) ;
#14 = ORIENTED_EDGE ( 'NONE', *, *, #45, .T. ) ;
#15 = VERTEX_POINT ( 'NONE', #150 ) ;
#16 = EDGE_LOOP ( 'NONE', ( #4, #176, #270, #221 ) ) ;
#17 = LINE ( 'NONE', #384, #300 ) ;
#18 = CIRCLE ( 'NONE', #314, 16.64999999999999858 ) ;
#19 = CARTESIAN_POINT ( 'NONE',  ( 0.0000000000000000000, 0.0000000000000000000, 10.00000000000000000 ) ) ;
#20 = DIRECTION ( 'NONE',  ( -0.0000000000000000000, -0.0000000000000000000, -1.000000000000000000 ) ) ;
#21 = ORIENTED_EDGE ( 'NONE', *, *, #234, .F. ) ;
#22 = AXIS2_PLACEMENT_3D ( 'NONE', #19, #292, #232 ) ;
#23 = ORIENTED_EDGE ( 'NONE', *, *, #297, .T. ) ;
#24 = AXIS2_PLACEMENT_3D ( 'NONE', #180, #61, #148 ) ;
#25 = CLOSED_SHELL ( 'NONE', ( #12, #373, #163, #342, #312, #76, #140, #280, #281, #44, #161, #79, #197 ) ) ;
#26 = CARTESIAN_POINT ( 'NONE',  ( 0.0000000000000000000, 0.0000000000000000000, 0.0000000000000000000 ) ) ;
#27 = ORIENTED_EDGE ( 'NONE', *, *, #353, .F. ) ;
#28 = CARTESIAN_POINT ( 'NONE',  ( 23.60000000000000497, 2.890166445987754072E-15, 0.0000000000000000000 ) ) ;
#29 = AXIS2_PLACEMENT_3D ( 'NONE', #136, #36, #338 ) ;
#30 = LINE ( 'NONE', #367, #240 ) ;
#31 = CONICAL_SURFACE ( 'NONE', #2, 16.64999999999999858, 0.5235987755982971503 ) ;
#32 = DIRECTION ( 'NONE',  ( 1.000000000000000000, 0.0000000000000000000, 0.0000000000000000000 ) ) ;
#33 = CARTESIAN_POINT ( 'NONE',  ( 19.62264973081037667, 2.438434026320156486E-15, 23.50000000000000000 ) ) ;
#34 = PRODUCT_DEFINITION ( 'UNKNOWN', '', #382, #208 ) ;
#35 = ORIENTED_EDGE ( 'NONE', *, *, #138, .T. ) ;
#36 = DIRECTION ( 'NONE',  ( 0.0000000000000000000, 0.0000000000000000000, 1.000000000000000000 ) ) ;
#37 = ORIENTED_EDGE ( 'NONE', *, *, #262, .F. ) ;
#38 = DIRECTION ( 'NONE',  ( 0.0000000000000000000, 0.0000000000000000000, 1.000000000000000000 ) ) ;
#39 = CARTESIAN_POINT ( 'NONE',  ( 0.0000000000000000000, 0.0000000000000000000, 23.50000000000000000 ) ) ;
#40 = EDGE_LOOP ( 'NONE', ( #291, #322, #357, #21 ) ) ;
#41 = LINE ( 'NONE', #55, #211 ) ;
#42 = CARTESIAN_POINT ( 'NONE',  ( 20.19999999999999929, 2.473786534277653227E-15, 23.50000000000000000 ) ) ;
#43 = FACE_OUTER_BOUND ( 'NONE', #253, .T. ) ;
#44 = ADVANCED_FACE ( 'NONE', ( #183, #361 ), #267, .T. ) ;
#45 = EDGE_CURVE ( 'NONE', #107, #369, #259, .T. ) ;
#46 = FILL_AREA_STYLE ('',( #48 ) ) ;
#47 = ORIENTED_EDGE ( 'NONE', *, *, #45, .F. ) ;
#48 = FILL_AREA_STYLE_COLOUR ( '', #328 ) ;
#49 = AXIS2_PLACEMENT_3D ( 'NONE', #213, #95, #91 ) ;
#50 = DIRECTION ( 'NONE',  ( 1.000000000000000000, 0.0000000000000000000, 0.0000000000000000000 ) ) ;
#51 = VERTEX_POINT ( 'NONE', #298 ) ;
#52 = VECTOR ( 'NONE', #278, 1000.000000000000000 ) ;
#53 = ORIENTED_EDGE ( 'NONE', *, *, #115, .T. ) ;
#54 = AXIS2_PLACEMENT_3D ( 'NONE', #189, #132, #368 ) ;
#55 = CARTESIAN_POINT ( 'NONE',  ( -23.60000000000000497, 0.0000000000000000000, 10.00000000000000000 ) ) ;
#56 =( GEOMETRIC_REPRESENTATION_CONTEXT ( 3 ) GLOBAL_UNCERTAINTY_ASSIGNED_CONTEXT ( ( #379 ) ) GLOBAL_UNIT_ASSIGNED_CONTEXT ( ( #200, #378, #110 ) ) REPRESENTATION_CONTEXT ( 'NONE', 'WORKASPACE' ) );
#57 = CARTESIAN_POINT ( 'NONE',  ( 0.0000000000000000000, 0.0000000000000000000, 10.00000000000000000 ) ) ;
#58 = ORIENTED_EDGE ( 'NONE', *, *, #290, .F. ) ;
#59 = EDGE_LOOP ( 'NONE', ( #236, #346, #206, #87 ) ) ;
#60 = CARTESIAN_POINT ( 'NONE',  ( 0.0000000000000000000, 0.0000000000000000000, 23.50000000000000000 ) ) ;
#61 = DIRECTION ( 'NONE',  ( 0.0000000000000000000, 0.0000000000000000000, 1.000000000000000000 ) ) ;
#62 = UNCERTAINTY_MEASURE_WITH_UNIT (LENGTH_MEASURE( 1.000000000000000082E-05 ), #374, 'distance_accuracy_value', 'NONE');
#63 = DIRECTION ( 'NONE',  ( 0.0000000000000000000, 0.0000000000000000000, 1.000000000000000000 ) ) ;
#64 = DIRECTION ( 'NONE',  ( 0.0000000000000000000, 0.0000000000000000000, -1.000000000000000000 ) ) ;
#65 = EDGE_CURVE ( 'NONE', #263, #318, #194, .T. ) ;
#66 = DIRECTION ( 'NONE',  ( 1.000000000000000000, 0.0000000000000000000, 0.0000000000000000000 ) ) ;
#67 = PRESENTATION_LAYER_ASSIGNMENT (  '', '', ( #131 ) ) ;
#68 = AXIS2_PLACEMENT_3D ( 'NONE', #139, #283, #66 ) ;
#69 = DIRECTION ( 'NONE',  ( -0.0000000000000000000, -0.0000000000000000000, -1.000000000000000000 ) ) ;
#70 = DIRECTION ( 'NONE',  ( -1.000000000000000000, 0.0000000000000000000, 0.0000000000000000000 ) ) ;
#71 = DIRECTION ( 'NONE',  ( 1.000000000000000000, 0.0000000000000000000, 0.0000000000000000000 ) ) ;
#72 = DIRECTION ( 'NONE',  ( -0.4999999999999985012, 6.123233995736747547E-17, 0.8660254037844394848 ) ) ;
#73 = AXIS2_PLACEMENT_3D ( 'NONE', #3, #247, #70 ) ;
#74 = SURFACE_STYLE_FILL_AREA ( #46 ) ;
#75 = VECTOR ( 'NONE', #385, 1000.000000000000114 ) ;
#76 = ADVANCED_FACE ( 'NONE', ( #43, #203 ), #388, .T. ) ;
#77 = VECTOR ( 'NONE', #72, 1000.000000000000000 ) ;
#78 =( GEOMETRIC_REPRESENTATION_CONTEXT ( 3 ) GLOBAL_UNCERTAINTY_ASSIGNED_CONTEXT ( ( #62 ) ) GLOBAL_UNIT_ASSIGNED_CONTEXT ( ( #374, #286, #252 ) ) REPRESENTATION_CONTEXT ( 'NONE', 'WORKASPACE' ) );
#79 = ADVANCED_FACE ( 'NONE', ( #128 ), #165, .T. ) ;
#80 = SURFACE_STYLE_USAGE ( .BOTH. , #229 ) ;
#81 = VERTEX_POINT ( 'NONE', #28 ) ;
#82 = CYLINDRICAL_SURFACE ( 'NONE', #293, 23.60000000000000497 ) ;
#83 = CARTESIAN_POINT ( 'NONE',  ( -19.62264973081037667, 0.0000000000000000000, 23.50000000000000000 ) ) ;
#84 = CYLINDRICAL_SURFACE ( 'NONE', #54, 20.19999999999999929 ) ;
#85 = CARTESIAN_POINT ( 'NONE',  ( 0.0000000000000000000, 0.0000000000000000000, 10.00000000000000000 ) ) ;
#86 = DIRECTION ( 'NONE',  ( 1.000000000000000000, 0.0000000000000000000, 0.0000000000000000000 ) ) ;
#87 = ORIENTED_EDGE ( 'NONE', *, *, #335, .F. ) ;
#88 = DIRECTION ( 'NONE',  ( 0.0000000000000000000, 0.0000000000000000000, 1.000000000000000000 ) ) ;
#89 = EDGE_CURVE ( 'NONE', #256, #275, #18, .T. ) ;
#90 = VERTEX_POINT ( 'NONE', #268 ) ;
#91 = DIRECTION ( 'NONE',  ( 1.000000000000000000, 0.0000000000000000000, 0.0000000000000000000 ) ) ;
#92 = AXIS2_PLACEMENT_3D ( 'NONE', #159, #363, #265 ) ;
#93 = FACE_OUTER_BOUND ( 'NONE', #228, .T. ) ;
#94 = DIRECTION ( 'NONE',  ( 0.0000000000000000000, 0.0000000000000000000, 1.000000000000000000 ) ) ;
#95 = DIRECTION ( 'NONE',  ( 0.0000000000000000000, 0.0000000000000000000, 1.000000000000000000 ) ) ;
#96 = CIRCLE ( 'NONE', #68, 23.60000000000000497 ) ;
#97 = PRODUCT_RELATED_PRODUCT_CATEGORY ( 'part', '', ( #302 ) ) ;
#98 = ORIENTED_EDGE ( 'NONE', *, *, #235, .F. ) ;
#99 =( NAMED_UNIT ( * ) PLANE_ANGLE_UNIT ( ) SI_UNIT ( $, .RADIAN. ) );
#100 = VERTEX_POINT ( 'NONE', #178 ) ;
#101 = DIRECTION ( 'NONE',  ( 0.4999999999999985012, 0.0000000000000000000, 0.8660254037844394848 ) ) ;
#102 = ORIENTED_EDGE ( 'NONE', *, *, #115, .F. ) ;
#103 = CARTESIAN_POINT ( 'NONE',  ( 0.0000000000000000000, 0.0000000000000000000, 22.50000000000000000 ) ) ;
#104 = DIRECTION ( 'NONE',  ( 1.000000000000000000, 0.0000000000000000000, 0.0000000000000000000 ) ) ;
#105 = LINE ( 'NONE', #5, #193 ) ;
#106 = CIRCLE ( 'NONE', #49, 16.64999999999999858 ) ;
#107 = VERTEX_POINT ( 'NONE', #33 ) ;
#108 = EDGE_LOOP ( 'NONE', ( #27, #334 ) ) ;
#109 = AXIS2_PLACEMENT_3D ( 'NONE', #255, #164, #50 ) ;
#110 =( NAMED_UNIT ( * ) SI_UNIT ( $, .STERADIAN. ) SOLID_ANGLE_UNIT ( ) );
#111 = EDGE_LOOP ( 'NONE', ( #47, #316, #37, #169 ) ) ;
#112 = AXIS2_PLACEMENT_3D ( 'NONE', #39, #225, #366 ) ;
#113 = ORIENTED_EDGE ( 'NONE', *, *, #335, .T. ) ;
#114 = CIRCLE ( 'NONE', #356, 20.19999999999999929 ) ;
#115 = EDGE_CURVE ( 'NONE', #133, #81, #279, .T. ) ;
#116 = ORIENTED_EDGE ( 'NONE', *, *, #227, .F. ) ;
#117 = CARTESIAN_POINT ( 'NONE',  ( 23.60000000000000497, 2.890166445987754072E-15, 10.00000000000000000 ) ) ;
#118 = EDGE_CURVE ( 'NONE', #369, #107, #341, .T. ) ;
#119 = DIRECTION ( 'NONE',  ( -0.0000000000000000000, -0.0000000000000000000, -1.000000000000000000 ) ) ;
#120 = MECHANICAL_DESIGN_GEOMETRIC_PRESENTATION_REPRESENTATION (  '', ( #343 ), #217 ) ;
#121 = DIRECTION ( 'NONE',  ( -1.000000000000000000, 0.0000000000000000000, 0.0000000000000000000 ) ) ;
#122 = ORIENTED_EDGE ( 'NONE', *, *, #154, .T. ) ;
#123 = EDGE_LOOP ( 'NONE', ( #98, #113, #23, #179 ) ) ;
#124 = DIRECTION ( 'NONE',  ( 1.000000000000000000, 0.0000000000000000000, 0.0000000000000000000 ) ) ;
#125 = ADVANCED_BREP_SHAPE_REPRESENTATION ( 'Rondelle Gauche 10 mm serrage BBSHD sur cadre', ( #370, #109 ), #56 ) ;
#126 = ORIENTED_EDGE ( 'NONE', *, *, #311, .T. ) ;
#127 = CARTESIAN_POINT ( 'NONE',  ( -23.60000000000000497, 0.0000000000000000000, 0.0000000000000000000 ) ) ;
#128 = FACE_OUTER_BOUND ( 'NONE', #59, .T. ) ;
#129 = ORIENTED_EDGE ( 'NONE', *, *, #297, .F. ) ;
#130 = CARTESIAN_POINT ( 'NONE',  ( 20.19999999999999929, 2.473786534277653227E-15, 10.00000000000000000 ) ) ;
#131 = STYLED_ITEM ( 'NONE', ( #8 ), #125 ) ;
#132 = DIRECTION ( 'NONE',  ( -0.0000000000000000000, -0.0000000000000000000, -1.000000000000000000 ) ) ;
#133 = VERTEX_POINT ( 'NONE', #127 ) ;
#134 = CIRCLE ( 'NONE', #173, 20.19999999999999929 ) ;
#135 = CARTESIAN_POINT ( 'NONE',  ( 0.0000000000000000000, 0.0000000000000000000, 10.00000000000000000 ) ) ;
#136 = CARTESIAN_POINT ( 'NONE',  ( 0.0000000000000000000, 0.0000000000000000000, 21.49999999999998579 ) ) ;
#137 = EDGE_CURVE ( 'NONE', #275, #256, #106, .T. ) ;
#138 = EDGE_CURVE ( 'NONE', #100, #198, #96, .T. ) ;
#139 = CARTESIAN_POINT ( 'NONE',  ( 0.0000000000000000000, 0.0000000000000000000, 10.00000000000000000 ) ) ;
#140 = ADVANCED_FACE ( 'NONE', ( #241, #226 ), #274, .F. ) ;
#141 = AXIS2_PLACEMENT_3D ( 'NONE', #57, #205, #144 ) ;
#142 = APPLICATION_CONTEXT ( 'automotive_design' ) ;
#143 = VERTEX_POINT ( 'NONE', #130 ) ;
#144 = DIRECTION ( 'NONE',  ( -1.000000000000000000, 0.0000000000000000000, 0.0000000000000000000 ) ) ;
#145 = DIRECTION ( 'NONE',  ( -0.0000000000000000000, -0.0000000000000000000, -1.000000000000000000 ) ) ;
#146 = AXIS2_PLACEMENT_3D ( 'NONE', #387, #224, #71 ) ;
#147 = DIRECTION ( 'NONE',  ( 1.000000000000000000, 0.0000000000000000000, -0.0000000000000000000 ) ) ;
#148 = DIRECTION ( 'NONE',  ( 1.000000000000000000, 0.0000000000000000000, 0.0000000000000000000 ) ) ;
#149 = PRODUCT_DEFINITION_SHAPE ( 'NONE', 'NONE',  #34 ) ;
#150 = CARTESIAN_POINT ( 'NONE',  ( -20.19999999999999929, 0.0000000000000000000, 22.50000000000000000 ) ) ;
#151 = CARTESIAN_POINT ( 'NONE',  ( 0.0000000000000000000, 0.0000000000000000000, 23.50000000000000000 ) ) ;
#152 = CIRCLE ( 'NONE', #375, 23.60000000000000497 ) ;
#153 = LINE ( 'NONE', #306, #77 ) ;
#154 = EDGE_CURVE ( 'NONE', #1, #295, #321, .T. ) ;
#155 = EDGE_LOOP ( 'NONE', ( #187, #122 ) ) ;
#156 = DIRECTION ( 'NONE',  ( -0.0000000000000000000, -0.0000000000000000000, -1.000000000000000000 ) ) ;
#157 = DIRECTION ( 'NONE',  ( 0.0000000000000000000, 0.0000000000000000000, 1.000000000000000000 ) ) ;
#158 = DIRECTION ( 'NONE',  ( -0.0000000000000000000, -0.0000000000000000000, -1.000000000000000000 ) ) ;
#159 = CARTESIAN_POINT ( 'NONE',  ( 0.0000000000000000000, 0.0000000000000000000, 23.50000000000000000 ) ) ;
#160 = CYLINDRICAL_SURFACE ( 'NONE', #394, 16.64999999999999858 ) ;
#161 = ADVANCED_FACE ( 'NONE', ( #251 ), #84, .T. ) ;
#162 = CIRCLE ( 'NONE', #168, 23.60000000000000497 ) ;
#163 = ADVANCED_FACE ( 'NONE', ( #171 ), #310, .T. ) ;
#164 = DIRECTION ( 'NONE',  ( 0.0000000000000000000, 0.0000000000000000000, 1.000000000000000000 ) ) ;
#165 = CONICAL_SURFACE ( 'NONE', #294, 19.62264973081037667, 0.5235987755982961511 ) ;
#166 = DIRECTION ( 'NONE',  ( 0.0000000000000000000, 0.0000000000000000000, -1.000000000000000000 ) ) ;
#167 = ORIENTED_EDGE ( 'NONE', *, *, #303, .F. ) ;
#168 = AXIS2_PLACEMENT_3D ( 'NONE', #185, #307, #337 ) ;
#169 = ORIENTED_EDGE ( 'NONE', *, *, #282, .F. ) ;
#170 = SHAPE_DEFINITION_REPRESENTATION ( #149, #125 ) ;
#171 = FACE_OUTER_BOUND ( 'NONE', #248, .T. ) ;
#172 = DIRECTION ( 'NONE',  ( 0.0000000000000000000, 0.0000000000000000000, -1.000000000000000000 ) ) ;
#173 = AXIS2_PLACEMENT_3D ( 'NONE', #260, #172, #86 ) ;
#174 = DIRECTION ( 'NONE',  ( -0.0000000000000000000, -0.0000000000000000000, -1.000000000000000000 ) ) ;
#175 = EDGE_CURVE ( 'NONE', #143, #51, #233, .T. ) ;
#176 = ORIENTED_EDGE ( 'NONE', *, *, #218, .F. ) ;
#177 = EDGE_LOOP ( 'NONE', ( #102, #266 ) ) ;
#178 = CARTESIAN_POINT ( 'NONE',  ( 23.60000000000000497, 2.890166445987754072E-15, 10.00000000000000000 ) ) ;
#179 = ORIENTED_EDGE ( 'NONE', *, *, #353, .T. ) ;
#180 = CARTESIAN_POINT ( 'NONE',  ( 0.0000000000000000000, 0.0000000000000000000, 23.50000000000000000 ) ) ;
#181 = CYLINDRICAL_SURFACE ( 'NONE', #11, 16.64999999999999858 ) ;
#182 = CARTESIAN_POINT ( 'NONE',  ( 0.0000000000000000000, 0.0000000000000000000, 0.0000000000000000000 ) ) ;
#183 = FACE_BOUND ( 'NONE', #155, .T. ) ;
#184 = ORIENTED_EDGE ( 'NONE', *, *, #235, .T. ) ;
#185 = CARTESIAN_POINT ( 'NONE',  ( 0.0000000000000000000, 0.0000000000000000000, 10.00000000000000000 ) ) ;
#186 = ORIENTED_EDGE ( 'NONE', *, *, #137, .F. ) ;
#187 = ORIENTED_EDGE ( 'NONE', *, *, #216, .T. ) ;
#188 = DIRECTION ( 'NONE',  ( -0.4999999999999976685, 0.0000000000000000000, -0.8660254037844399289 ) ) ;
#189 = CARTESIAN_POINT ( 'NONE',  ( 0.0000000000000000000, 0.0000000000000000000, 23.50000000000000000 ) ) ;
#190 = DIRECTION ( 'NONE',  ( 0.0000000000000000000, 0.0000000000000000000, -1.000000000000000000 ) ) ;
#191 = CARTESIAN_POINT ( 'NONE',  ( -23.60000000000000497, 0.0000000000000000000, 10.00000000000000000 ) ) ;
#192 = ORIENTED_EDGE ( 'NONE', *, *, #332, .F. ) ;
#193 = VECTOR ( 'NONE', #174, 1000.000000000000000 ) ;
#194 = CIRCLE ( 'NONE', #271, 16.64999999999999858 ) ;
#195 = AXIS2_PLACEMENT_3D ( 'NONE', #317, #166, #347 ) ;
#196 = APPLICATION_PROTOCOL_DEFINITION ( 'draft international standard', 'automotive_design', 1998, #142 ) ;
#197 = ADVANCED_FACE ( 'NONE', ( #383 ), #392, .F. ) ;
#198 = VERTEX_POINT ( 'NONE', #191 ) ;
#199 = EDGE_CURVE ( 'NONE', #263, #1, #153, .T. ) ;
#200 =( LENGTH_UNIT ( ) NAMED_UNIT ( * ) SI_UNIT ( .MILLI., .METRE. ) );
#201 = ORIENTED_EDGE ( 'NONE', *, *, #262, .T. ) ;
#202 = VECTOR ( 'NONE', #354, 1000.000000000000000 ) ;
#203 = FACE_BOUND ( 'NONE', #108, .T. ) ;
#204 =( LENGTH_UNIT ( ) NAMED_UNIT ( * ) SI_UNIT ( .MILLI., .METRE. ) );
#205 = DIRECTION ( 'NONE',  ( -0.0000000000000000000, -0.0000000000000000000, -1.000000000000000000 ) ) ;
#206 = ORIENTED_EDGE ( 'NONE', *, *, #282, .T. ) ;
#207 = CARTESIAN_POINT ( 'NONE',  ( 16.64999999999999858, 2.039036920580343136E-15, 21.49999999999998579 ) ) ;
#208 = PRODUCT_DEFINITION_CONTEXT ( 'detailed design', #315, 'design' ) ;
#209 = EDGE_LOOP ( 'NONE', ( #167, #355, #377, #186 ) ) ;
#210 = DIRECTION ( 'NONE',  ( -1.000000000000000000, 0.0000000000000000000, 0.0000000000000000000 ) ) ;
#211 = VECTOR ( 'NONE', #145, 1000.000000000000000 ) ;
#212 = DIRECTION ( 'NONE',  ( 1.000000000000000000, 0.0000000000000000000, -0.0000000000000000000 ) ) ;
#213 = CARTESIAN_POINT ( 'NONE',  ( 0.0000000000000000000, 0.0000000000000000000, 0.0000000000000000000 ) ) ;
#214 = CARTESIAN_POINT ( 'NONE',  ( -17.80470053837925448, 2.180446952410331283E-15, 23.50000000000000000 ) ) ;
#215 = DIRECTION ( 'NONE',  ( 0.0000000000000000000, 0.0000000000000000000, 1.000000000000000000 ) ) ;
#216 = EDGE_CURVE ( 'NONE', #295, #1, #301, .T. ) ;
#217 =( GEOMETRIC_REPRESENTATION_CONTEXT ( 3 ) GLOBAL_UNCERTAINTY_ASSIGNED_CONTEXT ( ( #230 ) ) GLOBAL_UNIT_ASSIGNED_CONTEXT ( ( #204, #99, #305 ) ) REPRESENTATION_CONTEXT ( 'NONE', 'WORKASPACE' ) );
#218 = EDGE_CURVE ( 'NONE', #318, #263, #331, .T. ) ;
#219 = CARTESIAN_POINT ( 'NONE',  ( 0.0000000000000000000, 0.0000000000000000000, 0.0000000000000000000 ) ) ;
#220 = DIRECTION ( 'NONE',  ( 1.000000000000000000, 0.0000000000000000000, 0.0000000000000000000 ) ) ;
#221 = ORIENTED_EDGE ( 'NONE', *, *, #154, .F. ) ;
#222 = CARTESIAN_POINT ( 'NONE',  ( -16.64999999999999858, 0.0000000000000000000, 10.00000000000000000 ) ) ;
#223 = CARTESIAN_POINT ( 'NONE',  ( 0.0000000000000000000, 0.0000000000000000000, 0.0000000000000000000 ) ) ;
#224 = DIRECTION ( 'NONE',  ( 0.0000000000000000000, 0.0000000000000000000, 1.000000000000000000 ) ) ;
#225 = DIRECTION ( 'NONE',  ( -0.0000000000000000000, -0.0000000000000000000, -1.000000000000000000 ) ) ;
#226 = FACE_BOUND ( 'NONE', #261, .T. ) ;
#227 = EDGE_CURVE ( 'NONE', #198, #100, #162, .T. ) ;
#228 = EDGE_LOOP ( 'NONE', ( #313, #326, #386, #393 ) ) ;
#229 = SURFACE_SIDE_STYLE ('',( #74 ) ) ;
#230 = UNCERTAINTY_MEASURE_WITH_UNIT (LENGTH_MEASURE( 1.000000000000000082E-05 ), #204, 'distance_accuracy_value', 'NONE');
#231 = COLOUR_RGB ( '',0.8980392156862745390, 0.9176470588235293713, 0.9294117647058823817 ) ;
#232 = DIRECTION ( 'NONE',  ( 1.000000000000000000, 0.0000000000000000000, 0.0000000000000000000 ) ) ;
#233 = CIRCLE ( 'NONE', #7, 20.19999999999999929 ) ;
#234 = EDGE_CURVE ( 'NONE', #263, #256, #10, .T. ) ;
#235 = EDGE_CURVE ( 'NONE', #90, #143, #250, .T. ) ;
#236 = ORIENTED_EDGE ( 'NONE', *, *, #323, .F. ) ;
#237 = DIRECTION ( 'NONE',  ( 0.0000000000000000000, 0.0000000000000000000, 1.000000000000000000 ) ) ;
#238 = DIRECTION ( 'NONE',  ( 1.000000000000000000, 0.0000000000000000000, 0.0000000000000000000 ) ) ;
#239 = CARTESIAN_POINT ( 'NONE',  ( 0.0000000000000000000, 0.0000000000000000000, 23.50000000000000000 ) ) ;
#240 = VECTOR ( 'NONE', #188, 1000.000000000000114 ) ;
#241 = FACE_OUTER_BOUND ( 'NONE', #177, .T. ) ;
#242 = EDGE_CURVE ( 'NONE', #81, #133, #152, .T. ) ;
#243 = DIRECTION ( 'NONE',  ( -1.000000000000000000, 0.0000000000000000000, 0.0000000000000000000 ) ) ;
#244 = CARTESIAN_POINT ( 'NONE',  ( 16.64999999999999858, 0.0000000000000000000, 21.49999999999998579 ) ) ;
#245 = ORIENTED_EDGE ( 'NONE', *, *, #227, .T. ) ;
#246 = CARTESIAN_POINT ( 'NONE',  ( 16.64999999999999858, 2.039036920580343136E-15, 0.0000000000000000000 ) ) ;
#247 = DIRECTION ( 'NONE',  ( -0.0000000000000000000, -0.0000000000000000000, -1.000000000000000000 ) ) ;
#248 = EDGE_LOOP ( 'NONE', ( #201, #184, #349, #129 ) ) ;
#249 = CARTESIAN_POINT ( 'NONE',  ( -16.64999999999999858, 0.0000000000000000000, 21.49999999999998579 ) ) ;
#250 = LINE ( 'NONE', #42, #287 ) ;
#251 = FACE_OUTER_BOUND ( 'NONE', #123, .T. ) ;
#252 =( NAMED_UNIT ( * ) SI_UNIT ( $, .STERADIAN. ) SOLID_ANGLE_UNIT ( ) );
#253 = EDGE_LOOP ( 'NONE', ( #245, #35 ) ) ;
#254 = AXIS2_PLACEMENT_3D ( 'NONE', #239, #94, #212 ) ;
#255 = CARTESIAN_POINT ( 'NONE',  ( 0.0000000000000000000, 0.0000000000000000000, 0.0000000000000000000 ) ) ;
#256 = VERTEX_POINT ( 'NONE', #340 ) ;
#257 = ORIENTED_EDGE ( 'NONE', *, *, #199, .T. ) ;
#258 = VECTOR ( 'NONE', #101, 1000.000000000000000 ) ;
#259 = CIRCLE ( 'NONE', #319, 19.62264973081037667 ) ;
#260 = CARTESIAN_POINT ( 'NONE',  ( 0.0000000000000000000, 0.0000000000000000000, 22.50000000000000000 ) ) ;
#261 = EDGE_LOOP ( 'NONE', ( #264, #304 ) ) ;
#262 = EDGE_CURVE ( 'NONE', #15, #90, #114, .T. ) ;
#263 = VERTEX_POINT ( 'NONE', #249 ) ;
#264 = ORIENTED_EDGE ( 'NONE', *, *, #89, .T. ) ;
#265 = DIRECTION ( 'NONE',  ( 1.000000000000000000, 0.0000000000000000000, 0.0000000000000000000 ) ) ;
#266 = ORIENTED_EDGE ( 'NONE', *, *, #242, .F. ) ;
#267 = PLANE ( 'NONE',  #254 ) ;
#268 = CARTESIAN_POINT ( 'NONE',  ( 20.19999999999999929, 2.473786534277653227E-15, 22.50000000000000000 ) ) ;
#269 = PRESENTATION_LAYER_ASSIGNMENT (  '', '', ( #343 ) ) ;
#270 = ORIENTED_EDGE ( 'NONE', *, *, #290, .T. ) ;
#271 = AXIS2_PLACEMENT_3D ( 'NONE', #296, #215, #124 ) ;
#272 = DIRECTION ( 'NONE',  ( 0.0000000000000000000, 0.0000000000000000000, 1.000000000000000000 ) ) ;
#273 = DIRECTION ( 'NONE',  ( 1.000000000000000000, 0.0000000000000000000, 0.0000000000000000000 ) ) ;
#274 = PLANE ( 'NONE',  #276 ) ;
#275 = VERTEX_POINT ( 'NONE', #246 ) ;
#276 = AXIS2_PLACEMENT_3D ( 'NONE', #223, #157, #6 ) ;
#277 = LINE ( 'NONE', #380, #75 ) ;
#278 = DIRECTION ( 'NONE',  ( -0.0000000000000000000, -0.0000000000000000000, -1.000000000000000000 ) ) ;
#279 = CIRCLE ( 'NONE', #376, 23.60000000000000497 ) ;
#280 = ADVANCED_FACE ( 'NONE', ( #339 ), #82, .T. ) ;
#281 = ADVANCED_FACE ( 'NONE', ( #350 ), #181, .F. ) ;
#282 = EDGE_CURVE ( 'NONE', #369, #15, #30, .T. ) ;
#283 = DIRECTION ( 'NONE',  ( 0.0000000000000000000, 0.0000000000000000000, 1.000000000000000000 ) ) ;
#284 = APPLICATION_PROTOCOL_DEFINITION ( 'draft international standard', 'automotive_design', 1998, #315 ) ;
#285 = EDGE_LOOP ( 'NONE', ( #333, #14 ) ) ;
#286 =( NAMED_UNIT ( * ) PLANE_ANGLE_UNIT ( ) SI_UNIT ( $, .RADIAN. ) );
#287 = VECTOR ( 'NONE', #69, 1000.000000000000000 ) ;
#288 = FILL_AREA_STYLE_COLOUR ( '', #231 ) ;
#289 = FILL_AREA_STYLE ('',( #288 ) ) ;
#290 = EDGE_CURVE ( 'NONE', #318, #295, #9, .T. ) ;
#291 = ORIENTED_EDGE ( 'NONE', *, *, #65, .T. ) ;
#292 = DIRECTION ( 'NONE',  ( 0.0000000000000000000, 0.0000000000000000000, 1.000000000000000000 ) ) ;
#293 = AXIS2_PLACEMENT_3D ( 'NONE', #135, #158, #365 ) ;
#294 = AXIS2_PLACEMENT_3D ( 'NONE', #151, #64, #210 ) ;
#295 = VERTEX_POINT ( 'NONE', #327 ) ;
#296 = CARTESIAN_POINT ( 'NONE',  ( 0.0000000000000000000, 0.0000000000000000000, 21.49999999999998579 ) ) ;
#297 = EDGE_CURVE ( 'NONE', #15, #51, #105, .T. ) ;
#298 = CARTESIAN_POINT ( 'NONE',  ( -20.19999999999999929, 0.0000000000000000000, 10.00000000000000000 ) ) ;
#299 = DIRECTION ( 'NONE',  ( 0.0000000000000000000, 0.0000000000000000000, 1.000000000000000000 ) ) ;
#300 = VECTOR ( 'NONE', #20, 1000.000000000000000 ) ;
#301 = CIRCLE ( 'NONE', #92, 17.80470053837925448 ) ;
#302 = PRODUCT ( 'Rondelle Gauche 10 mm serrage BBSHD sur cadre', 'Rondelle Gauche 10 mm serrage BBSHD sur cadre', '', ( #13 ) ) ;
#303 = EDGE_CURVE ( 'NONE', #318, #275, #17, .T. ) ;
#304 = ORIENTED_EDGE ( 'NONE', *, *, #137, .T. ) ;
#305 =( NAMED_UNIT ( * ) SI_UNIT ( $, .STERADIAN. ) SOLID_ANGLE_UNIT ( ) );
#306 = CARTESIAN_POINT ( 'NONE',  ( -16.64999999999999858, 2.039036920580343136E-15, 21.49999999999998579 ) ) ;
#307 = DIRECTION ( 'NONE',  ( 0.0000000000000000000, 0.0000000000000000000, 1.000000000000000000 ) ) ;
#308 = FACE_OUTER_BOUND ( 'NONE', #111, .T. ) ;
#309 = CIRCLE ( 'NONE', #22, 20.19999999999999929 ) ;
#310 = CYLINDRICAL_SURFACE ( 'NONE', #73, 20.19999999999999929 ) ;
#311 = EDGE_CURVE ( 'NONE', #198, #133, #41, .T. ) ;
#312 = ADVANCED_FACE ( 'NONE', ( #93 ), #329, .T. ) ;
#313 = ORIENTED_EDGE ( 'NONE', *, *, #138, .F. ) ;
#314 = AXIS2_PLACEMENT_3D ( 'NONE', #26, #88, #238 ) ;
#315 = APPLICATION_CONTEXT ( 'automotive_design' ) ;
#316 = ORIENTED_EDGE ( 'NONE', *, *, #323, .T. ) ;
#317 = CARTESIAN_POINT ( 'NONE',  ( 0.0000000000000000000, 0.0000000000000000000, 23.50000000000000000 ) ) ;
#318 = VERTEX_POINT ( 'NONE', #207 ) ;
#319 = AXIS2_PLACEMENT_3D ( 'NONE', #60, #299, #362 ) ;
#320 = LINE ( 'NONE', #117, #202 ) ;
#321 = CIRCLE ( 'NONE', #112, 17.80470053837925448 ) ;
#322 = ORIENTED_EDGE ( 'NONE', *, *, #303, .T. ) ;
#323 = EDGE_CURVE ( 'NONE', #107, #90, #277, .T. ) ;
#324 = EDGE_LOOP ( 'NONE', ( #192, #116, #126, #53 ) ) ;
#325 = DIRECTION ( 'NONE',  ( 0.0000000000000000000, 0.0000000000000000000, 1.000000000000000000 ) ) ;
#326 = ORIENTED_EDGE ( 'NONE', *, *, #332, .T. ) ;
#327 = CARTESIAN_POINT ( 'NONE',  ( 17.80470053837925448, 0.0000000000000000000, 23.50000000000000000 ) ) ;
#328 = COLOUR_RGB ( '',0.8980392156862745390, 0.9176470588235293713, 0.9294117647058823817 ) ;
#329 = CYLINDRICAL_SURFACE ( 'NONE', #141, 23.60000000000000497 ) ;
#330 = FACE_OUTER_BOUND ( 'NONE', #345, .T. ) ;
#331 = CIRCLE ( 'NONE', #146, 16.64999999999999858 ) ;
#332 = EDGE_CURVE ( 'NONE', #100, #81, #320, .T. ) ;
#333 = ORIENTED_EDGE ( 'NONE', *, *, #118, .T. ) ;
#334 = ORIENTED_EDGE ( 'NONE', *, *, #175, .F. ) ;
#335 = EDGE_CURVE ( 'NONE', #90, #15, #134, .T. ) ;
#336 = ORIENTED_EDGE ( 'NONE', *, *, #216, .F. ) ;
#337 = DIRECTION ( 'NONE',  ( 1.000000000000000000, 0.0000000000000000000, 0.0000000000000000000 ) ) ;
#338 = DIRECTION ( 'NONE',  ( 1.000000000000000000, 0.0000000000000000000, 0.0000000000000000000 ) ) ;
#339 = FACE_OUTER_BOUND ( 'NONE', #324, .T. ) ;
#340 = CARTESIAN_POINT ( 'NONE',  ( -16.64999999999999858, 0.0000000000000000000, 0.0000000000000000000 ) ) ;
#341 = CIRCLE ( 'NONE', #24, 19.62264973081037667 ) ;
#342 = ADVANCED_FACE ( 'NONE', ( #391 ), #160, .F. ) ;
#343 = STYLED_ITEM ( 'NONE', ( #358 ), #370 ) ;
#344 = ORIENTED_EDGE ( 'NONE', *, *, #65, .F. ) ;
#345 = EDGE_LOOP ( 'NONE', ( #344, #257, #336, #58 ) ) ;
#346 = ORIENTED_EDGE ( 'NONE', *, *, #118, .F. ) ;
#347 = DIRECTION ( 'NONE',  ( -1.000000000000000000, 0.0000000000000000000, 0.0000000000000000000 ) ) ;
#348 = CONICAL_SURFACE ( 'NONE', #195, 19.62264973081037667, 0.5235987755982961511 ) ;
#349 = ORIENTED_EDGE ( 'NONE', *, *, #175, .T. ) ;
#350 = FACE_OUTER_BOUND ( 'NONE', #209, .T. ) ;
#351 = SURFACE_SIDE_STYLE ('',( #381 ) ) ;
#352 = SURFACE_STYLE_USAGE ( .BOTH. , #351 ) ;
#353 = EDGE_CURVE ( 'NONE', #51, #143, #309, .T. ) ;
#354 = DIRECTION ( 'NONE',  ( -0.0000000000000000000, -0.0000000000000000000, -1.000000000000000000 ) ) ;
#355 = ORIENTED_EDGE ( 'NONE', *, *, #218, .T. ) ;
#356 = AXIS2_PLACEMENT_3D ( 'NONE', #103, #190, #104 ) ;
#357 = ORIENTED_EDGE ( 'NONE', *, *, #89, .F. ) ;
#358 = PRESENTATION_STYLE_ASSIGNMENT (( #352 ) ) ;
#359 = CARTESIAN_POINT ( 'NONE',  ( 0.0000000000000000000, 0.0000000000000000000, 10.00000000000000000 ) ) ;
#360 = AXIS2_PLACEMENT_3D ( 'NONE', #359, #325, #147 ) ;
#361 = FACE_OUTER_BOUND ( 'NONE', #285, .T. ) ;
#362 = DIRECTION ( 'NONE',  ( 1.000000000000000000, 0.0000000000000000000, 0.0000000000000000000 ) ) ;
#363 = DIRECTION ( 'NONE',  ( -0.0000000000000000000, -0.0000000000000000000, -1.000000000000000000 ) ) ;
#364 = MECHANICAL_DESIGN_GEOMETRIC_PRESENTATION_REPRESENTATION (  '', ( #131 ), #78 ) ;
#365 = DIRECTION ( 'NONE',  ( -1.000000000000000000, 0.0000000000000000000, 0.0000000000000000000 ) ) ;
#366 = DIRECTION ( 'NONE',  ( 1.000000000000000000, 0.0000000000000000000, 0.0000000000000000000 ) ) ;
#367 = CARTESIAN_POINT ( 'NONE',  ( -19.62264973081037667, 0.0000000000000000000, 23.50000000000000000 ) ) ;
#368 = DIRECTION ( 'NONE',  ( -1.000000000000000000, 0.0000000000000000000, 0.0000000000000000000 ) ) ;
#369 = VERTEX_POINT ( 'NONE', #83 ) ;
#370 = MANIFOLD_SOLID_BREP ( 'Chanfrein3', #25 ) ;
#371 = CARTESIAN_POINT ( 'NONE',  ( 0.0000000000000000000, 0.0000000000000000000, 10.00000000000000000 ) ) ;
#372 = CARTESIAN_POINT ( 'NONE',  ( 0.0000000000000000000, 0.0000000000000000000, 10.00000000000000000 ) ) ;
#373 = ADVANCED_FACE ( 'NONE', ( #308 ), #348, .T. ) ;
#374 =( LENGTH_UNIT ( ) NAMED_UNIT ( * ) SI_UNIT ( .MILLI., .METRE. ) );
#375 = AXIS2_PLACEMENT_3D ( 'NONE', #219, #38, #273 ) ;
#376 = AXIS2_PLACEMENT_3D ( 'NONE', #182, #237, #390 ) ;
#377 = ORIENTED_EDGE ( 'NONE', *, *, #234, .T. ) ;
#378 =( NAMED_UNIT ( * ) PLANE_ANGLE_UNIT ( ) SI_UNIT ( $, .RADIAN. ) );
#379 = UNCERTAINTY_MEASURE_WITH_UNIT (LENGTH_MEASURE( 1.000000000000000082E-05 ), #200, 'distance_accuracy_value', 'NONE');
#380 = CARTESIAN_POINT ( 'NONE',  ( 19.62264973081037667, 2.403081518362659745E-15, 23.50000000000000000 ) ) ;
#381 = SURFACE_STYLE_FILL_AREA ( #289 ) ;
#382 = PRODUCT_DEFINITION_FORMATION_WITH_SPECIFIED_SOURCE ( 'ANY', '', #302, .NOT_KNOWN. ) ;
#383 = FACE_OUTER_BOUND ( 'NONE', #16, .T. ) ;
#384 = CARTESIAN_POINT ( 'NONE',  ( 16.64999999999999858, 2.039036920580343136E-15, 10.00000000000000000 ) ) ;
#385 = DIRECTION ( 'NONE',  ( 0.4999999999999976685, 6.123233995736736454E-17, -0.8660254037844399289 ) ) ;
#386 = ORIENTED_EDGE ( 'NONE', *, *, #242, .T. ) ;
#387 = CARTESIAN_POINT ( 'NONE',  ( 0.0000000000000000000, 0.0000000000000000000, 21.49999999999998579 ) ) ;
#388 = PLANE ( 'NONE',  #360 ) ;
#389 = CARTESIAN_POINT ( 'NONE',  ( 0.0000000000000000000, 0.0000000000000000000, 21.49999999999998579 ) ) ;
#390 = DIRECTION ( 'NONE',  ( 1.000000000000000000, 0.0000000000000000000, 0.0000000000000000000 ) ) ;
#391 = FACE_OUTER_BOUND ( 'NONE', #40, .T. ) ;
#392 = CONICAL_SURFACE ( 'NONE', #29, 16.64999999999999858, 0.5235987755982971503 ) ;
#393 = ORIENTED_EDGE ( 'NONE', *, *, #311, .F. ) ;
#394 = AXIS2_PLACEMENT_3D ( 'NONE', #85, #119, #121 ) ;
ENDSEC;
END-ISO-10303-21;
