ISO-10303-21;
HEADER;
/* Generated by software containing ST-Developer
 * from STEP Tools, Inc. (www.steptools.com) 
 */

FILE_DESCRIPTION(
/* description */ (''),
/* implementation_level */ '2;1');

FILE_NAME(
/* name */ 'bague silencieux',
/* time_stamp */ '2019-04-04T16:43:12+02:00',
/* author */ (''),
/* organization */ (''),
/* preprocessor_version */ 'ST-DEVELOPER v12',
/* originating_system */ 'MicroStation Version 08.11.09.584',
/* authorisation */ '');

FILE_SCHEMA (('AUTOMOTIVE_DESIGN'));
ENDSEC;

DATA;
#10=SHAPE_DEFINITION_REPRESENTATION(#11,#316);
#11=PRODUCT_DEFINITION_SHAPE('','',#16);
#12=PRODUCT_CONTEXT('',#18,'mechanical');
#13=PRODUCT_RELATED_PRODUCT_CATEGORY('part','',(#14));
#14=PRODUCT('bague silencieux1','','',(#12));
#15=PRODUCT_DEFINITION_FORMATION_WITH_SPECIFIED_SOURCE('','',#14,.NOT_KNOWN.);
#16=PRODUCT_DEFINITION('','',#15,#19);
#17=APPLICATION_PROTOCOL_DEFINITION('','automotive_design',1994,#18);
#18=APPLICATION_CONTEXT('');
#19=PRODUCT_DEFINITION_CONTEXT('part definition',#18,'design');
#20=PRESENTATION_LAYER_ASSIGNMENT('33','',(#177));
#21=FILL_AREA_STYLE_COLOUR('',#26);
#22=FILL_AREA_STYLE('',(#21));
#23=SURFACE_STYLE_FILL_AREA(#22);
#24=SURFACE_SIDE_STYLE('',(#23));
#25=SURFACE_STYLE_USAGE(.BOTH.,#24);
#26=COLOUR_RGB('',1.,1.,1.);
#27=DRAUGHTING_PRE_DEFINED_CURVE_FONT('continuous');
#28=CURVE_STYLE('',#27,POSITIVE_LENGTH_MEASURE(0.),#26);
#29=PRESENTATION_STYLE_ASSIGNMENT((#28,#25));
#30=STYLED_ITEM('Styled Item',(#29),#177);
#31=MECHANICAL_DESIGN_GEOMETRIC_PRESENTATION_REPRESENTATION('',(#30),#315);
#32=SHAPE_REPRESENTATION_RELATIONSHIP('','',#316,#178);
#33=CONICAL_SURFACE('',#280,16.999994852001,45.);
#34=CONICAL_SURFACE('',#293,15.999994852001,60.0000000000565);
#35=CONICAL_SURFACE('',#295,11.5000751061554,89.9997380195311);
#36=CONICAL_SURFACE('',#298,16.999994852001,45.0000000000001);
#37=CONICAL_SURFACE('',#299,18.2928880708145,45.);
#38=CYLINDRICAL_SURFACE('',#277,16.999994852001);
#39=CYLINDRICAL_SURFACE('',#282,19.999994852001);
#40=CYLINDRICAL_SURFACE('',#286,18.999994852001);
#41=CYLINDRICAL_SURFACE('',#291,15.999994852001);
#42=CYLINDRICAL_SURFACE('',#297,11.5);
#43=CIRCLE('',#275,16.2928880708145);
#44=CIRCLE('',#276,11.5);
#45=CIRCLE('',#278,16.999994852001);
#46=CIRCLE('',#279,16.999994852001);
#47=CIRCLE('',#281,19.999994852001);
#48=CIRCLE('',#283,19.999994852001);
#49=CIRCLE('',#285,18.999994852001);
#50=CIRCLE('',#287,18.999994852001);
#51=CIRCLE('',#289,18.2928880708145);
#52=CIRCLE('',#290,15.999994852001);
#53=CIRCLE('',#292,15.999994852001);
#54=CIRCLE('',#294,11.5000751061554);
#55=CIRCLE('',#296,11.5);
#56=VERTEX_POINT('',#181);
#57=VERTEX_POINT('',#183);
#58=VERTEX_POINT('',#186);
#59=VERTEX_POINT('',#188);
#60=VERTEX_POINT('',#191);
#61=VERTEX_POINT('',#194);
#62=VERTEX_POINT('',#197);
#63=VERTEX_POINT('',#200);
#64=VERTEX_POINT('',#203);
#65=VERTEX_POINT('',#205);
#66=VERTEX_POINT('',#208);
#67=VERTEX_POINT('',#211);
#68=VERTEX_POINT('',#214);
#69=EDGE_CURVE('',#56,#56,#43,.F.);
#70=EDGE_CURVE('',#57,#57,#44,.F.);
#71=EDGE_CURVE('',#58,#58,#45,.T.);
#72=EDGE_CURVE('',#59,#59,#46,.T.);
#73=EDGE_CURVE('',#60,#60,#47,.T.);
#74=EDGE_CURVE('',#61,#61,#48,.T.);
#75=EDGE_CURVE('',#62,#62,#49,.T.);
#76=EDGE_CURVE('',#63,#63,#50,.T.);
#77=EDGE_CURVE('',#64,#64,#51,.F.);
#78=EDGE_CURVE('',#65,#65,#52,.T.);
#79=EDGE_CURVE('',#66,#66,#53,.T.);
#80=EDGE_CURVE('',#67,#67,#54,.T.);
#81=EDGE_CURVE('',#68,#68,#55,.T.);
#82=ORIENTED_EDGE('',*,*,#69,.T.);
#83=ORIENTED_EDGE('',*,*,#70,.F.);
#84=ORIENTED_EDGE('',*,*,#71,.T.);
#85=ORIENTED_EDGE('',*,*,#72,.F.);
#86=ORIENTED_EDGE('',*,*,#73,.F.);
#87=ORIENTED_EDGE('',*,*,#72,.T.);
#88=ORIENTED_EDGE('',*,*,#74,.F.);
#89=ORIENTED_EDGE('',*,*,#73,.T.);
#90=ORIENTED_EDGE('',*,*,#75,.F.);
#91=ORIENTED_EDGE('',*,*,#74,.T.);
#92=ORIENTED_EDGE('',*,*,#76,.T.);
#93=ORIENTED_EDGE('',*,*,#75,.T.);
#94=ORIENTED_EDGE('',*,*,#77,.T.);
#95=ORIENTED_EDGE('',*,*,#78,.F.);
#96=ORIENTED_EDGE('',*,*,#79,.F.);
#97=ORIENTED_EDGE('',*,*,#78,.T.);
#98=ORIENTED_EDGE('',*,*,#80,.F.);
#99=ORIENTED_EDGE('',*,*,#79,.T.);
#100=ORIENTED_EDGE('',*,*,#81,.T.);
#101=ORIENTED_EDGE('',*,*,#80,.T.);
#102=ORIENTED_EDGE('',*,*,#70,.T.);
#103=ORIENTED_EDGE('',*,*,#81,.F.);
#104=ORIENTED_EDGE('',*,*,#69,.F.);
#105=ORIENTED_EDGE('',*,*,#71,.F.);
#106=ORIENTED_EDGE('',*,*,#76,.F.);
#107=ORIENTED_EDGE('',*,*,#77,.F.);
#108=EDGE_LOOP('',(#82));
#109=EDGE_LOOP('',(#83));
#110=EDGE_LOOP('',(#84));
#111=EDGE_LOOP('',(#85));
#112=EDGE_LOOP('',(#86));
#113=EDGE_LOOP('',(#87));
#114=EDGE_LOOP('',(#88));
#115=EDGE_LOOP('',(#89));
#116=EDGE_LOOP('',(#90));
#117=EDGE_LOOP('',(#91));
#118=EDGE_LOOP('',(#92));
#119=EDGE_LOOP('',(#93));
#120=EDGE_LOOP('',(#94));
#121=EDGE_LOOP('',(#95));
#122=EDGE_LOOP('',(#96));
#123=EDGE_LOOP('',(#97));
#124=EDGE_LOOP('',(#98));
#125=EDGE_LOOP('',(#99));
#126=EDGE_LOOP('',(#100));
#127=EDGE_LOOP('',(#101));
#128=EDGE_LOOP('',(#102));
#129=EDGE_LOOP('',(#103));
#130=EDGE_LOOP('',(#104));
#131=EDGE_LOOP('',(#105));
#132=EDGE_LOOP('',(#106));
#133=EDGE_LOOP('',(#107));
#134=FACE_BOUND('',#108,.T.);
#135=FACE_BOUND('',#109,.T.);
#136=FACE_BOUND('',#110,.T.);
#137=FACE_BOUND('',#111,.T.);
#138=FACE_BOUND('',#112,.T.);
#139=FACE_BOUND('',#113,.T.);
#140=FACE_BOUND('',#114,.T.);
#141=FACE_BOUND('',#115,.T.);
#142=FACE_BOUND('',#116,.T.);
#143=FACE_BOUND('',#117,.T.);
#144=FACE_BOUND('',#118,.T.);
#145=FACE_BOUND('',#119,.T.);
#146=FACE_BOUND('',#120,.T.);
#147=FACE_BOUND('',#121,.T.);
#148=FACE_BOUND('',#122,.T.);
#149=FACE_BOUND('',#123,.T.);
#150=FACE_BOUND('',#124,.T.);
#151=FACE_BOUND('',#125,.T.);
#152=FACE_BOUND('',#126,.T.);
#153=FACE_BOUND('',#127,.T.);
#154=FACE_BOUND('',#128,.T.);
#155=FACE_BOUND('',#129,.T.);
#156=FACE_BOUND('',#130,.T.);
#157=FACE_BOUND('',#131,.T.);
#158=FACE_BOUND('',#132,.T.);
#159=FACE_BOUND('',#133,.T.);
#160=PLANE('',#274);
#161=PLANE('',#284);
#162=PLANE('',#288);
#163=ADVANCED_FACE('',(#134,#135),#160,.F.);
#164=ADVANCED_FACE('',(#136,#137),#38,.T.);
#165=ADVANCED_FACE('',(#138,#139),#33,.T.);
#166=ADVANCED_FACE('',(#140,#141),#39,.T.);
#167=ADVANCED_FACE('',(#142,#143),#161,.F.);
#168=ADVANCED_FACE('',(#144,#145),#40,.T.);
#169=ADVANCED_FACE('',(#146,#147),#162,.F.);
#170=ADVANCED_FACE('',(#148,#149),#41,.F.);
#171=ADVANCED_FACE('',(#150,#151),#34,.F.);
#172=ADVANCED_FACE('',(#152,#153),#35,.T.);
#173=ADVANCED_FACE('',(#154,#155),#42,.F.);
#174=ADVANCED_FACE('',(#156,#157),#36,.T.);
#175=ADVANCED_FACE('',(#158,#159),#37,.T.);
#176=CLOSED_SHELL('',(#163,#164,#165,#166,#167,#168,#169,#170,#171,#172,
#173,#174,#175));
#177=MANIFOLD_SOLID_BREP('',#176);
#178=ADVANCED_BREP_SHAPE_REPRESENTATION(
'Advanced Brep Shape Representation',(#177),#315);
#179=CARTESIAN_POINT('Cartesian Point',(0.,0.,0.));
#180=CARTESIAN_POINT('',(-146679.972606383,-197.120910412461,17.4962412626991));
#181=CARTESIAN_POINT('',(-146696.265494454,-197.120910412461,17.4962464106683));
#182=CARTESIAN_POINT('',(-146679.972606383,-197.120910412461,17.4962464106683));
#183=CARTESIAN_POINT('',(-146691.472606383,-197.120910412461,17.4962464106683));
#184=CARTESIAN_POINT('',(-146679.972606383,-197.120910412461,17.4962464106683));
#185=CARTESIAN_POINT('',(-146679.972606383,-179.569074855024,17.4962464106683));
#186=CARTESIAN_POINT('',(-146696.972601235,-196.413803631274,17.4962464106683));
#187=CARTESIAN_POINT('',(-146679.972606383,-196.413803631274,17.4962464106683));
#188=CARTESIAN_POINT('',(-146696.972601235,-187.120910412461,17.4962464106683));
#189=CARTESIAN_POINT('',(-146679.972606383,-187.120910412461,17.4962464106683));
#190=CARTESIAN_POINT('',(-146679.972606383,-187.120910412461,17.4962464106683));
#191=CARTESIAN_POINT('',(-146699.972601235,-184.120910412461,17.4962464106683));
#192=CARTESIAN_POINT('',(-146679.972606383,-184.120910412461,17.4962464106683));
#193=CARTESIAN_POINT('',(-146679.972606383,-179.569074855024,17.4962464106683));
#194=CARTESIAN_POINT('',(-146699.972601235,-182.117532518655,17.4962464106683));
#195=CARTESIAN_POINT('',(-146679.972606383,-182.117532518655,17.4962464106683));
#196=CARTESIAN_POINT('',(-146679.972606383,-182.117532518655,37.4962412626693));
#197=CARTESIAN_POINT('',(-146698.972601235,-182.117532518655,17.4962464106683));
#198=CARTESIAN_POINT('',(-146679.972606383,-182.117532518655,17.4962464106683));
#199=CARTESIAN_POINT('',(-146679.972606383,-179.569074855024,17.4962464106683));
#200=CARTESIAN_POINT('',(-146660.972611531,-147.678204342814,17.4962464106683));
#201=CARTESIAN_POINT('',(-146679.972606383,-147.678204342814,17.4962464106683));
#202=CARTESIAN_POINT('',(-146679.972606383,-146.971097561628,36.4962412626693));
#203=CARTESIAN_POINT('',(-146661.679718312,-146.971097561628,17.4962464106683));
#204=CARTESIAN_POINT('',(-146679.972606383,-146.971097561628,17.4962464106683));
#205=CARTESIAN_POINT('',(-146695.972601235,-146.971097561628,17.4962464106683));
#206=CARTESIAN_POINT('',(-146679.972606383,-146.971097561628,17.4962464106683));
#207=CARTESIAN_POINT('',(-146679.972606383,-179.569074855024,17.4962464106683));
#208=CARTESIAN_POINT('',(-146695.972601235,-176.971097561628,17.4962464106683));
#209=CARTESIAN_POINT('',(-146679.972606383,-176.971097561628,17.4962464106683));
#210=CARTESIAN_POINT('',(-146679.972606383,-176.971097561628,17.4962464106683));
#211=CARTESIAN_POINT('',(-146691.472681489,-179.569127438217,17.4962464106683));
#212=CARTESIAN_POINT('',(-146679.972606383,-179.569127438217,17.4962464106683));
#213=CARTESIAN_POINT('',(-146679.972606383,-179.569127438217,17.4962464106683));
#214=CARTESIAN_POINT('',(-146668.472606383,-179.569127437874,17.4962464106683));
#215=CARTESIAN_POINT('',(-146679.972606383,-179.569127437874,17.4962464106683));
#216=CARTESIAN_POINT('',(-146679.972606383,-197.120910412461,17.4962464106683));
#217=CARTESIAN_POINT('',(-146679.972606383,-196.413803631274,17.4962464106683));
#218=CARTESIAN_POINT('',(-146679.972606383,-146.971097561628,17.4962464106683));
#219=DIRECTION('Direction',(0.,0.,1.));
#220=DIRECTION('Direction',(1.,0.,0.));
#221=DIRECTION('',(0.,1.,0.));
#222=DIRECTION('',(-1.,0.,0.));
#223=DIRECTION('',(0.,1.,0.));
#224=DIRECTION('',(-1.,0.,0.));
#225=DIRECTION('',(0.,1.,0.));
#226=DIRECTION('',(-1.,0.,0.));
#227=DIRECTION('',(0.,1.,0.));
#228=DIRECTION('',(-1.,0.,0.));
#229=DIRECTION('',(0.,1.,0.));
#230=DIRECTION('',(-1.,0.,0.));
#231=DIRECTION('',(0.,1.,0.));
#232=DIRECTION('',(-1.,0.,0.));
#233=DIRECTION('',(0.,1.,0.));
#234=DIRECTION('',(-1.,0.,0.));
#235=DIRECTION('',(0.,1.,0.));
#236=DIRECTION('',(-1.,0.,0.));
#237=DIRECTION('',(0.,1.,0.));
#238=DIRECTION('',(-1.,0.,0.));
#239=DIRECTION('',(0.,1.,0.));
#240=DIRECTION('',(-1.,0.,0.));
#241=DIRECTION('',(0.,-1.,0.));
#242=DIRECTION('',(1.,0.,0.));
#243=DIRECTION('',(0.,1.,0.));
#244=DIRECTION('',(-1.,0.,0.));
#245=DIRECTION('',(0.,1.,0.));
#246=DIRECTION('',(-1.,0.,0.));
#247=DIRECTION('',(0.,-1.,0.));
#248=DIRECTION('',(1.,0.,0.));
#249=DIRECTION('',(0.,-1.,0.));
#250=DIRECTION('',(1.,0.,0.));
#251=DIRECTION('',(0.,-1.,0.));
#252=DIRECTION('',(1.,0.,0.));
#253=DIRECTION('',(0.,1.,0.));
#254=DIRECTION('',(-1.,0.,0.));
#255=DIRECTION('',(0.,1.,0.));
#256=DIRECTION('',(-1.,0.,0.));
#257=DIRECTION('',(0.,1.,0.));
#258=DIRECTION('',(-1.,0.,0.));
#259=DIRECTION('',(0.,1.,0.));
#260=DIRECTION('',(-1.,0.,0.));
#261=DIRECTION('',(0.,1.,0.));
#262=DIRECTION('',(-1.,0.,0.));
#263=DIRECTION('',(0.,-1.,0.));
#264=DIRECTION('',(1.,0.,0.));
#265=DIRECTION('',(0.,-1.,0.));
#266=DIRECTION('',(1.,0.,0.));
#267=DIRECTION('',(0.,1.,0.));
#268=DIRECTION('',(0.,0.,-1.));
#269=DIRECTION('',(0.,1.,0.));
#270=DIRECTION('',(-1.,0.,0.));
#271=DIRECTION('',(0.,-1.,0.));
#272=DIRECTION('',(1.,0.,0.));
#273=AXIS2_PLACEMENT_3D('Placement',#179,#219,#220);
#274=AXIS2_PLACEMENT_3D('',#180,#221,#222);
#275=AXIS2_PLACEMENT_3D('',#182,#223,#224);
#276=AXIS2_PLACEMENT_3D('',#184,#225,#226);
#277=AXIS2_PLACEMENT_3D('',#185,#227,#228);
#278=AXIS2_PLACEMENT_3D('',#187,#229,#230);
#279=AXIS2_PLACEMENT_3D('',#189,#231,#232);
#280=AXIS2_PLACEMENT_3D('',#190,#233,#234);
#281=AXIS2_PLACEMENT_3D('',#192,#235,#236);
#282=AXIS2_PLACEMENT_3D('',#193,#237,#238);
#283=AXIS2_PLACEMENT_3D('',#195,#239,#240);
#284=AXIS2_PLACEMENT_3D('',#196,#241,#242);
#285=AXIS2_PLACEMENT_3D('',#198,#243,#244);
#286=AXIS2_PLACEMENT_3D('',#199,#245,#246);
#287=AXIS2_PLACEMENT_3D('',#201,#247,#248);
#288=AXIS2_PLACEMENT_3D('',#202,#249,#250);
#289=AXIS2_PLACEMENT_3D('',#204,#251,#252);
#290=AXIS2_PLACEMENT_3D('',#206,#253,#254);
#291=AXIS2_PLACEMENT_3D('',#207,#255,#256);
#292=AXIS2_PLACEMENT_3D('',#209,#257,#258);
#293=AXIS2_PLACEMENT_3D('',#210,#259,#260);
#294=AXIS2_PLACEMENT_3D('',#212,#261,#262);
#295=AXIS2_PLACEMENT_3D('',#213,#263,#264);
#296=AXIS2_PLACEMENT_3D('',#215,#265,#266);
#297=AXIS2_PLACEMENT_3D('',#216,#267,#268);
#298=AXIS2_PLACEMENT_3D('',#217,#269,#270);
#299=AXIS2_PLACEMENT_3D('',#218,#271,#272);
#300=UNCERTAINTY_MEASURE_WITH_UNIT(LENGTH_MEASURE(1.E-005),#302,
'distance_accuracy_value','');
#301=UNCERTAINTY_MEASURE_WITH_UNIT(LENGTH_MEASURE(2.1474836475E-005),#303,
'distance_accuracy_value','');
#302=(
LENGTH_UNIT()
NAMED_UNIT(*)
SI_UNIT(.MILLI.,.METRE.)
);
#303=(
LENGTH_UNIT()
NAMED_UNIT(*)
SI_UNIT(.MILLI.,.METRE.)
);
#304=(
NAMED_UNIT(*)
SI_UNIT($,.STERADIAN.)
SOLID_ANGLE_UNIT()
);
#305=(
NAMED_UNIT(*)
SI_UNIT($,.STERADIAN.)
SOLID_ANGLE_UNIT()
);
#306=(
NAMED_UNIT(*)
PLANE_ANGLE_UNIT()
SI_UNIT($,.RADIAN.)
);
#307=(
NAMED_UNIT(*)
PLANE_ANGLE_UNIT()
SI_UNIT($,.RADIAN.)
);
#308=PLANE_ANGLE_MEASURE_WITH_UNIT(PLANE_ANGLE_MEASURE(0.0174532925199433),
#306);
#309=PLANE_ANGLE_MEASURE_WITH_UNIT(PLANE_ANGLE_MEASURE(0.0174532925199433),
#307);
#310=DIMENSIONAL_EXPONENTS(0.,0.,0.,0.,0.,0.,0.);
#311=DIMENSIONAL_EXPONENTS(0.,0.,0.,0.,0.,0.,0.);
#312=(
CONVERSION_BASED_UNIT('DEGREE',#308)
NAMED_UNIT(#310)
PLANE_ANGLE_UNIT()
);
#313=(
CONVERSION_BASED_UNIT('DEGREE',#309)
NAMED_UNIT(#311)
PLANE_ANGLE_UNIT()
);
#314=(
GEOMETRIC_REPRESENTATION_CONTEXT(3)
GLOBAL_UNCERTAINTY_ASSIGNED_CONTEXT((#300))
GLOBAL_UNIT_ASSIGNED_CONTEXT((#302,#312,#304))
REPRESENTATION_CONTEXT('Based on DGN file units settings',' ')
);
#315=(
GEOMETRIC_REPRESENTATION_CONTEXT(3)
GLOBAL_UNCERTAINTY_ASSIGNED_CONTEXT((#301))
GLOBAL_UNIT_ASSIGNED_CONTEXT((#303,#313,#305))
REPRESENTATION_CONTEXT('Based on DGN file units settings',' ')
);
#316=SHAPE_REPRESENTATION('',(#273),#314);
ENDSEC;
END-ISO-10303-21;
