ISO-10303-21;
HEADER;
/* Generated by software containing ST-Developer
 * from STEP Tools, Inc. (www.steptools.com) 
 */

FILE_DESCRIPTION(
/* description */ (''),
/* implementation_level */ '2;1');

FILE_NAME(
/* name */ 'C:\\Users\\jn.fabie\\Desktop\\poulie.stp',
/* time_stamp */ '2019-04-17T11:22:02+02:00',
/* author */ ('jn.fabie'),
/* organization */ (''),
/* preprocessor_version */ 'ST-DEVELOPER v17',
/* originating_system */ 'Autodesk Inventor 2019',
/* authorisation */ '');

FILE_SCHEMA (('AUTOMOTIVE_DESIGN { 1 0 10303 214 3 1 1 }'));
ENDSEC;

DATA;
#10=MECHANICAL_DESIGN_GEOMETRIC_PRESENTATION_REPRESENTATION('',(#13),#302);
#11=SHAPE_REPRESENTATION_RELATIONSHIP('SRR','None',#309,#12);
#12=ADVANCED_BREP_SHAPE_REPRESENTATION('',(#14),#301);
#13=STYLED_ITEM('',(#318),#14);
#14=MANIFOLD_SOLID_BREP('Solide1',#155);
#15=FACE_BOUND('',#36,.T.);
#16=FACE_BOUND('',#38,.T.);
#17=PLANE('',#194);
#18=PLANE('',#195);
#19=TOROIDAL_SURFACE('',#184,11.203898360642,1.65694686158442);
#20=CONICAL_SURFACE('',#179,12.25,1.29249666778979);
#21=CONICAL_SURFACE('',#188,12.25,1.29249666778979);
#22=FACE_OUTER_BOUND('',#30,.T.);
#23=FACE_OUTER_BOUND('',#31,.T.);
#24=FACE_OUTER_BOUND('',#32,.T.);
#25=FACE_OUTER_BOUND('',#33,.T.);
#26=FACE_OUTER_BOUND('',#34,.T.);
#27=FACE_OUTER_BOUND('',#35,.T.);
#28=FACE_OUTER_BOUND('',#37,.T.);
#29=FACE_OUTER_BOUND('',#39,.T.);
#30=EDGE_LOOP('',(#102,#103,#104,#105,#106));
#31=EDGE_LOOP('',(#107,#108,#109,#110,#111,#112));
#32=EDGE_LOOP('',(#113,#114,#115,#116,#117,#118));
#33=EDGE_LOOP('',(#119,#120,#121,#122,#123,#124));
#34=EDGE_LOOP('',(#125,#126,#127,#128,#129,#130));
#35=EDGE_LOOP('',(#131,#132));
#36=EDGE_LOOP('',(#133));
#37=EDGE_LOOP('',(#134,#135));
#38=EDGE_LOOP('',(#136,#137));
#39=EDGE_LOOP('',(#138,#139,#140,#141,#142,#143));
#40=LINE('',#261,#45);
#41=LINE('',#269,#46);
#42=LINE('',#284,#47);
#43=LINE('',#290,#48);
#44=LINE('',#298,#49);
#45=VECTOR('',#207,6.);
#46=VECTOR('',#216,12.25);
#47=VECTOR('',#235,12.25);
#48=VECTOR('',#242,14.);
#49=VECTOR('',#253,14.);
#50=CIRCLE('',#176,6.);
#51=CIRCLE('',#177,6.);
#52=CIRCLE('',#178,6.);
#53=CIRCLE('',#180,10.5);
#54=CIRCLE('',#181,10.5);
#55=CIRCLE('',#182,14.);
#56=CIRCLE('',#183,14.);
#57=CIRCLE('',#185,1.65694686158442);
#58=CIRCLE('',#186,10.5);
#59=CIRCLE('',#187,10.5);
#60=CIRCLE('',#189,14.);
#61=CIRCLE('',#190,14.);
#62=CIRCLE('',#192,14.);
#63=CIRCLE('',#193,14.);
#64=CIRCLE('',#196,14.);
#65=CIRCLE('',#197,14.);
#66=VERTEX_POINT('',#256);
#67=VERTEX_POINT('',#257);
#68=VERTEX_POINT('',#260);
#69=VERTEX_POINT('',#264);
#70=VERTEX_POINT('',#265);
#71=VERTEX_POINT('',#268);
#72=VERTEX_POINT('',#270);
#73=VERTEX_POINT('',#274);
#74=VERTEX_POINT('',#276);
#75=VERTEX_POINT('',#280);
#76=VERTEX_POINT('',#281);
#77=VERTEX_POINT('',#286);
#78=VERTEX_POINT('',#287);
#79=VERTEX_POINT('',#293);
#80=VERTEX_POINT('',#294);
#81=EDGE_CURVE('',#66,#67,#50,.T.);
#82=EDGE_CURVE('',#67,#66,#51,.T.);
#83=EDGE_CURVE('',#67,#68,#40,.T.);
#84=EDGE_CURVE('',#68,#68,#52,.T.);
#85=EDGE_CURVE('',#69,#70,#53,.T.);
#86=EDGE_CURVE('',#70,#69,#54,.T.);
#87=EDGE_CURVE('',#70,#71,#41,.T.);
#88=EDGE_CURVE('',#71,#72,#55,.T.);
#89=EDGE_CURVE('',#72,#71,#56,.T.);
#90=EDGE_CURVE('',#70,#73,#57,.T.);
#91=EDGE_CURVE('',#74,#73,#58,.T.);
#92=EDGE_CURVE('',#73,#74,#59,.T.);
#93=EDGE_CURVE('',#75,#76,#60,.T.);
#94=EDGE_CURVE('',#76,#75,#61,.T.);
#95=EDGE_CURVE('',#76,#73,#42,.T.);
#96=EDGE_CURVE('',#77,#78,#62,.T.);
#97=EDGE_CURVE('',#78,#77,#63,.T.);
#98=EDGE_CURVE('',#78,#76,#43,.T.);
#99=EDGE_CURVE('',#79,#80,#64,.T.);
#100=EDGE_CURVE('',#80,#79,#65,.T.);
#101=EDGE_CURVE('',#71,#80,#44,.T.);
#102=ORIENTED_EDGE('',*,*,#81,.F.);
#103=ORIENTED_EDGE('',*,*,#82,.F.);
#104=ORIENTED_EDGE('',*,*,#83,.T.);
#105=ORIENTED_EDGE('',*,*,#84,.F.);
#106=ORIENTED_EDGE('',*,*,#83,.F.);
#107=ORIENTED_EDGE('',*,*,#85,.F.);
#108=ORIENTED_EDGE('',*,*,#86,.F.);
#109=ORIENTED_EDGE('',*,*,#87,.T.);
#110=ORIENTED_EDGE('',*,*,#88,.T.);
#111=ORIENTED_EDGE('',*,*,#89,.T.);
#112=ORIENTED_EDGE('',*,*,#87,.F.);
#113=ORIENTED_EDGE('',*,*,#85,.T.);
#114=ORIENTED_EDGE('',*,*,#90,.T.);
#115=ORIENTED_EDGE('',*,*,#91,.F.);
#116=ORIENTED_EDGE('',*,*,#92,.F.);
#117=ORIENTED_EDGE('',*,*,#90,.F.);
#118=ORIENTED_EDGE('',*,*,#86,.T.);
#119=ORIENTED_EDGE('',*,*,#93,.F.);
#120=ORIENTED_EDGE('',*,*,#94,.F.);
#121=ORIENTED_EDGE('',*,*,#95,.T.);
#122=ORIENTED_EDGE('',*,*,#92,.T.);
#123=ORIENTED_EDGE('',*,*,#91,.T.);
#124=ORIENTED_EDGE('',*,*,#95,.F.);
#125=ORIENTED_EDGE('',*,*,#96,.F.);
#126=ORIENTED_EDGE('',*,*,#97,.F.);
#127=ORIENTED_EDGE('',*,*,#98,.T.);
#128=ORIENTED_EDGE('',*,*,#94,.T.);
#129=ORIENTED_EDGE('',*,*,#93,.T.);
#130=ORIENTED_EDGE('',*,*,#98,.F.);
#131=ORIENTED_EDGE('',*,*,#96,.T.);
#132=ORIENTED_EDGE('',*,*,#97,.T.);
#133=ORIENTED_EDGE('',*,*,#84,.T.);
#134=ORIENTED_EDGE('',*,*,#99,.F.);
#135=ORIENTED_EDGE('',*,*,#100,.F.);
#136=ORIENTED_EDGE('',*,*,#81,.T.);
#137=ORIENTED_EDGE('',*,*,#82,.T.);
#138=ORIENTED_EDGE('',*,*,#89,.F.);
#139=ORIENTED_EDGE('',*,*,#88,.F.);
#140=ORIENTED_EDGE('',*,*,#101,.T.);
#141=ORIENTED_EDGE('',*,*,#100,.T.);
#142=ORIENTED_EDGE('',*,*,#99,.T.);
#143=ORIENTED_EDGE('',*,*,#101,.F.);
#144=CYLINDRICAL_SURFACE('',#175,6.);
#145=CYLINDRICAL_SURFACE('',#191,14.);
#146=CYLINDRICAL_SURFACE('',#198,14.);
#147=ADVANCED_FACE('',(#22),#144,.F.);
#148=ADVANCED_FACE('',(#23),#20,.T.);
#149=ADVANCED_FACE('',(#24),#19,.F.);
#150=ADVANCED_FACE('',(#25),#21,.T.);
#151=ADVANCED_FACE('',(#26),#145,.T.);
#152=ADVANCED_FACE('',(#27,#15),#17,.T.);
#153=ADVANCED_FACE('',(#28,#16),#18,.T.);
#154=ADVANCED_FACE('',(#29),#146,.T.);
#155=CLOSED_SHELL('',(#147,#148,#149,#150,#151,#152,#153,#154));
#156=DERIVED_UNIT_ELEMENT(#158,1.);
#157=DERIVED_UNIT_ELEMENT(#304,3.);
#158=(
MASS_UNIT()
NAMED_UNIT(*)
SI_UNIT($,.GRAM.)
);
#159=DERIVED_UNIT((#156,#157));
#160=MEASURE_REPRESENTATION_ITEM('density measure',
POSITIVE_RATIO_MEASURE(1.),#159);
#161=PROPERTY_DEFINITION_REPRESENTATION(#166,#163);
#162=PROPERTY_DEFINITION_REPRESENTATION(#167,#164);
#163=REPRESENTATION('material name',(#165),#301);
#164=REPRESENTATION('density',(#160),#301);
#165=DESCRIPTIVE_REPRESENTATION_ITEM('G\X\E9n\X\E9rique','G\X\E9n\X\E9
rique');
#166=PROPERTY_DEFINITION('material property','material name',#311);
#167=PROPERTY_DEFINITION('material property','density of part',#311);
#168=DATE_TIME_ROLE('creation_date');
#169=APPLIED_DATE_AND_TIME_ASSIGNMENT(#170,#168,(#311));
#170=DATE_AND_TIME(#171,#172);
#171=CALENDAR_DATE(2019,17,4);
#172=LOCAL_TIME(10,42,31.,#173);
#173=COORDINATED_UNIVERSAL_TIME_OFFSET(0,0,.BEHIND.);
#174=AXIS2_PLACEMENT_3D('placement',#254,#199,#200);
#175=AXIS2_PLACEMENT_3D('',#255,#201,#202);
#176=AXIS2_PLACEMENT_3D('',#258,#203,#204);
#177=AXIS2_PLACEMENT_3D('',#259,#205,#206);
#178=AXIS2_PLACEMENT_3D('',#262,#208,#209);
#179=AXIS2_PLACEMENT_3D('',#263,#210,#211);
#180=AXIS2_PLACEMENT_3D('',#266,#212,#213);
#181=AXIS2_PLACEMENT_3D('',#267,#214,#215);
#182=AXIS2_PLACEMENT_3D('',#271,#217,#218);
#183=AXIS2_PLACEMENT_3D('',#272,#219,#220);
#184=AXIS2_PLACEMENT_3D('',#273,#221,#222);
#185=AXIS2_PLACEMENT_3D('',#275,#223,#224);
#186=AXIS2_PLACEMENT_3D('',#277,#225,#226);
#187=AXIS2_PLACEMENT_3D('',#278,#227,#228);
#188=AXIS2_PLACEMENT_3D('',#279,#229,#230);
#189=AXIS2_PLACEMENT_3D('',#282,#231,#232);
#190=AXIS2_PLACEMENT_3D('',#283,#233,#234);
#191=AXIS2_PLACEMENT_3D('',#285,#236,#237);
#192=AXIS2_PLACEMENT_3D('',#288,#238,#239);
#193=AXIS2_PLACEMENT_3D('',#289,#240,#241);
#194=AXIS2_PLACEMENT_3D('',#291,#243,#244);
#195=AXIS2_PLACEMENT_3D('',#292,#245,#246);
#196=AXIS2_PLACEMENT_3D('',#295,#247,#248);
#197=AXIS2_PLACEMENT_3D('',#296,#249,#250);
#198=AXIS2_PLACEMENT_3D('',#297,#251,#252);
#199=DIRECTION('axis',(0.,0.,1.));
#200=DIRECTION('refdir',(1.,0.,0.));
#201=DIRECTION('center_axis',(-1.,0.,0.));
#202=DIRECTION('ref_axis',(0.,0.,1.));
#203=DIRECTION('center_axis',(1.,0.,0.));
#204=DIRECTION('ref_axis',(0.,0.,1.));
#205=DIRECTION('center_axis',(1.,0.,0.));
#206=DIRECTION('ref_axis',(0.,0.,1.));
#207=DIRECTION('',(1.,0.,0.));
#208=DIRECTION('center_axis',(-1.,0.,0.));
#209=DIRECTION('ref_axis',(0.,0.,1.));
#210=DIRECTION('center_axis',(-1.,0.,0.));
#211=DIRECTION('ref_axis',(0.,0.,-1.));
#212=DIRECTION('center_axis',(1.,0.,0.));
#213=DIRECTION('ref_axis',(0.,0.,-1.));
#214=DIRECTION('center_axis',(1.,0.,0.));
#215=DIRECTION('ref_axis',(0.,0.,-1.));
#216=DIRECTION('',(-0.274721127897378,-1.17752722478186E-16,0.961523947640823));
#217=DIRECTION('center_axis',(1.,0.,0.));
#218=DIRECTION('ref_axis',(0.,0.,-1.));
#219=DIRECTION('center_axis',(1.,0.,0.));
#220=DIRECTION('ref_axis',(0.,0.,-1.));
#221=DIRECTION('center_axis',(1.,0.,0.));
#222=DIRECTION('ref_axis',(0.,0.,-1.));
#223=DIRECTION('center_axis',(0.,-1.,-1.22464679914735E-16));
#224=DIRECTION('ref_axis',(0.,-1.22464679914735E-16,1.));
#225=DIRECTION('center_axis',(1.,0.,0.));
#226=DIRECTION('ref_axis',(0.,0.,-1.));
#227=DIRECTION('center_axis',(1.,0.,0.));
#228=DIRECTION('ref_axis',(0.,0.,-1.));
#229=DIRECTION('center_axis',(1.,0.,0.));
#230=DIRECTION('ref_axis',(0.,0.,-1.));
#231=DIRECTION('center_axis',(1.,0.,0.));
#232=DIRECTION('ref_axis',(0.,0.,-1.));
#233=DIRECTION('center_axis',(1.,0.,0.));
#234=DIRECTION('ref_axis',(0.,0.,-1.));
#235=DIRECTION('',(-0.274721127897378,1.17752722478186E-16,-0.961523947640823));
#236=DIRECTION('center_axis',(1.,0.,0.));
#237=DIRECTION('ref_axis',(0.,0.,-1.));
#238=DIRECTION('center_axis',(1.,0.,0.));
#239=DIRECTION('ref_axis',(0.,0.,-1.));
#240=DIRECTION('center_axis',(1.,0.,0.));
#241=DIRECTION('ref_axis',(0.,0.,-1.));
#242=DIRECTION('',(-1.,0.,0.));
#243=DIRECTION('center_axis',(1.,0.,0.));
#244=DIRECTION('ref_axis',(0.,0.,-1.));
#245=DIRECTION('center_axis',(-1.,0.,0.));
#246=DIRECTION('ref_axis',(0.,0.,1.));
#247=DIRECTION('center_axis',(1.,0.,0.));
#248=DIRECTION('ref_axis',(0.,0.,-1.));
#249=DIRECTION('center_axis',(1.,0.,0.));
#250=DIRECTION('ref_axis',(0.,0.,-1.));
#251=DIRECTION('center_axis',(1.,0.,0.));
#252=DIRECTION('ref_axis',(0.,0.,-1.));
#253=DIRECTION('',(-1.,0.,0.));
#254=CARTESIAN_POINT('',(0.,0.,0.));
#255=CARTESIAN_POINT('Origin',(36.1078810084939,0.,0.));
#256=CARTESIAN_POINT('',(-4.5,0.,6.));
#257=CARTESIAN_POINT('',(-4.5,-7.34788079488412E-16,-6.));
#258=CARTESIAN_POINT('Origin',(-4.5,0.,0.));
#259=CARTESIAN_POINT('Origin',(-4.5,0.,0.));
#260=CARTESIAN_POINT('',(4.5,-7.34788079488412E-16,-6.));
#261=CARTESIAN_POINT('',(36.1078810084939,-7.34788079488412E-16,-6.));
#262=CARTESIAN_POINT('Origin',(4.5,0.,0.));
#263=CARTESIAN_POINT('Origin',(-2.,0.,0.));
#264=CARTESIAN_POINT('',(-1.5,0.,-10.5));
#265=CARTESIAN_POINT('',(-1.5,-1.28587913910472E-15,10.5));
#266=CARTESIAN_POINT('Origin',(-1.5,0.,0.));
#267=CARTESIAN_POINT('Origin',(-1.5,0.,0.));
#268=CARTESIAN_POINT('',(-2.5,-1.71450551880629E-15,14.));
#269=CARTESIAN_POINT('',(-2.,-1.50019232895551E-15,12.25));
#270=CARTESIAN_POINT('',(-2.5,0.,-14.));
#271=CARTESIAN_POINT('Origin',(-2.5,0.,0.));
#272=CARTESIAN_POINT('Origin',(-2.5,0.,0.));
#273=CARTESIAN_POINT('Origin',(0.,0.,0.));
#274=CARTESIAN_POINT('',(1.5,-1.28587913910472E-15,10.5));
#275=CARTESIAN_POINT('Origin',(0.,-1.37208182653325E-15,11.203898360642));
#276=CARTESIAN_POINT('',(1.5,0.,-10.5));
#277=CARTESIAN_POINT('Origin',(1.5,0.,0.));
#278=CARTESIAN_POINT('Origin',(1.5,0.,0.));
#279=CARTESIAN_POINT('Origin',(2.,0.,0.));
#280=CARTESIAN_POINT('',(2.5,0.,-14.));
#281=CARTESIAN_POINT('',(2.5,-1.71450551880629E-15,14.));
#282=CARTESIAN_POINT('Origin',(2.5,0.,0.));
#283=CARTESIAN_POINT('Origin',(2.5,0.,0.));
#284=CARTESIAN_POINT('',(2.,-1.50019232895551E-15,12.25));
#285=CARTESIAN_POINT('Origin',(3.5,0.,0.));
#286=CARTESIAN_POINT('',(4.5,0.,-14.));
#287=CARTESIAN_POINT('',(4.5,-1.71450551880629E-15,14.));
#288=CARTESIAN_POINT('Origin',(4.5,0.,0.));
#289=CARTESIAN_POINT('Origin',(4.5,0.,0.));
#290=CARTESIAN_POINT('',(3.5,-1.71450551880629E-15,14.));
#291=CARTESIAN_POINT('Origin',(4.5,0.,0.));
#292=CARTESIAN_POINT('Origin',(-4.5,0.,-14.));
#293=CARTESIAN_POINT('',(-4.5,0.,-14.));
#294=CARTESIAN_POINT('',(-4.5,-1.71450551880629E-15,14.));
#295=CARTESIAN_POINT('Origin',(-4.5,0.,0.));
#296=CARTESIAN_POINT('Origin',(-4.5,0.,0.));
#297=CARTESIAN_POINT('Origin',(-3.5,0.,0.));
#298=CARTESIAN_POINT('',(-3.5,-1.71450551880629E-15,14.));
#299=UNCERTAINTY_MEASURE_WITH_UNIT(LENGTH_MEASURE(0.01),#303,
'DISTANCE_ACCURACY_VALUE',
'Maximum model space distance between geometric entities at asserted c
onnectivities');
#300=UNCERTAINTY_MEASURE_WITH_UNIT(LENGTH_MEASURE(0.01),#303,
'DISTANCE_ACCURACY_VALUE',
'Maximum model space distance between geometric entities at asserted c
onnectivities');
#301=(
GEOMETRIC_REPRESENTATION_CONTEXT(3)
GLOBAL_UNCERTAINTY_ASSIGNED_CONTEXT((#299))
GLOBAL_UNIT_ASSIGNED_CONTEXT((#303,#306,#305))
REPRESENTATION_CONTEXT('','3D')
);
#302=(
GEOMETRIC_REPRESENTATION_CONTEXT(3)
GLOBAL_UNCERTAINTY_ASSIGNED_CONTEXT((#300))
GLOBAL_UNIT_ASSIGNED_CONTEXT((#303,#306,#305))
REPRESENTATION_CONTEXT('','3D')
);
#303=(
LENGTH_UNIT()
NAMED_UNIT(*)
SI_UNIT(.MILLI.,.METRE.)
);
#304=(
LENGTH_UNIT()
NAMED_UNIT(*)
SI_UNIT(.CENTI.,.METRE.)
);
#305=(
NAMED_UNIT(*)
SI_UNIT($,.STERADIAN.)
SOLID_ANGLE_UNIT()
);
#306=(
NAMED_UNIT(*)
PLANE_ANGLE_UNIT()
SI_UNIT($,.RADIAN.)
);
#307=SHAPE_DEFINITION_REPRESENTATION(#308,#309);
#308=PRODUCT_DEFINITION_SHAPE('',$,#311);
#309=SHAPE_REPRESENTATION('',(#174),#301);
#310=PRODUCT_DEFINITION_CONTEXT('part definition',#315,'design');
#311=PRODUCT_DEFINITION('Pi\X\E8ce1','Pi\X\E8ce1',#312,#310);
#312=PRODUCT_DEFINITION_FORMATION('',$,#317);
#313=PRODUCT_RELATED_PRODUCT_CATEGORY('Pi\X\E8ce1','Pi\X\E8ce1',(#317));
#314=APPLICATION_PROTOCOL_DEFINITION('international standard',
'automotive_design',2009,#315);
#315=APPLICATION_CONTEXT(
'Core Data for Automotive Mechanical Design Process');
#316=PRODUCT_CONTEXT('part definition',#315,'mechanical');
#317=PRODUCT('Pi\X\E8ce1','Pi\X\E8ce1',$,(#316));
#318=PRESENTATION_STYLE_ASSIGNMENT((#319));
#319=SURFACE_STYLE_USAGE(.BOTH.,#320);
#320=SURFACE_SIDE_STYLE('',(#321));
#321=SURFACE_STYLE_FILL_AREA(#322);
#322=FILL_AREA_STYLE('',(#323));
#323=FILL_AREA_STYLE_COLOUR('',#324);
#324=COLOUR_RGB('',0.749019607843137,0.749019607843137,0.749019607843137);
ENDSEC;
END-ISO-10303-21;
