ISO-10303-21;
HEADER;
FILE_DESCRIPTION (( 'STEP AP203' ),
    '1' );
FILE_NAME ('axesb.STEP',
    '2018-09-24T18:29:56',
    ( '' ),
    ( '' ),
    'SwSTEP 2.0',
    'SolidWorks 2014',
    '' );
FILE_SCHEMA (( 'CONFIG_CONTROL_DESIGN' ));
ENDSEC;

DATA;
#1 = ORIENTED_EDGE ( 'NONE', *, *, #183, .F. ) ;
#2 = DIRECTION ( 'NONE',  ( 0.0000000000000000000, 0.0000000000000000000, -1.000000000000000000 ) ) ;
#3 = APPROVAL_PERSON_ORGANIZATION ( #73, #99, #333 ) ;
#4 = EDGE_CURVE ( 'NONE', #116, #282, #64, .T. ) ;
#5 = CARTESIAN_POINT ( 'NONE',  ( 0.0000000000000000000, 0.0000000000000000000, 1.000000000000000900 ) ) ;
#6 = FACE_BOUND ( 'NONE', #270, .T. ) ;
#7 = DIRECTION ( 'NONE',  ( -0.7071067811865469100, 0.0000000000000000000, -0.7071067811865482400 ) ) ;
#8 = VERTEX_POINT ( 'NONE', #216 ) ;
#9 = DIRECTION ( 'NONE',  ( 0.0000000000000000000, 0.0000000000000000000, 1.000000000000000000 ) ) ;
#10 = ORIENTED_EDGE ( 'NONE', *, *, #276, .F. ) ;
#11 = APPROVAL ( #90, 'UNSPECIFIED' ) ;
#12 = DIRECTION ( 'NONE',  ( -0.0000000000000000000, -0.0000000000000000000, -1.000000000000000000 ) ) ;
#13 = DIRECTION ( 'NONE',  ( 0.0000000000000000000, 0.0000000000000000000, 1.000000000000000000 ) ) ;
#14 = EDGE_LOOP ( 'NONE', ( #142, #293, #1, #206 ) ) ;
#15 = PERSON_AND_ORGANIZATION_ROLE ( 'design_supplier' ) ;
#16 = COORDINATED_UNIVERSAL_TIME_OFFSET ( 1, 0, .AHEAD. ) ;
#17 = DIRECTION ( 'NONE',  ( 1.000000000000000000, 0.0000000000000000000, 0.0000000000000000000 ) ) ;
#18 = LOCAL_TIME ( 20, 29, 56.00000000000000000, #82 ) ;
#19 = DIRECTION ( 'NONE',  ( -0.7071067811865482400, 8.659560562354941500E-017, 0.7071067811865469100 ) ) ;
#20 = DESIGN_CONTEXT ( 'detailed design', #63, 'design' ) ;
#21 = EDGE_LOOP ( 'NONE', ( #321, #263 ) ) ;
#22 = VERTEX_POINT ( 'NONE', #86 ) ;
#23 = CIRCLE ( 'NONE', #132, 7.100000000000000500 ) ;
#24 = LOCAL_TIME ( 20, 29, 56.00000000000000000, #93 ) ;
#25 = EDGE_CURVE ( 'NONE', #22, #111, #89, .T. ) ;
#26 = CALENDAR_DATE ( 2018, 24, 9 ) ;
#27 = CIRCLE ( 'NONE', #161, 8.999999999999998200 ) ;
#28 = PERSON_AND_ORGANIZATION_ROLE ( 'classification_officer' ) ;
#29 = CARTESIAN_POINT ( 'NONE',  ( 0.0000000000000000000, 0.0000000000000000000, 0.0000000000000000000 ) ) ;
#30 = ADVANCED_FACE ( 'NONE', ( #128 ), #300, .T. ) ;
#31 = CC_DESIGN_APPROVAL ( #11, ( #338 ) ) ;
#32 = DIRECTION ( 'NONE',  ( 0.0000000000000000000, 0.0000000000000000000, -1.000000000000000000 ) ) ;
#33 = EDGE_LOOP ( 'NONE', ( #130, #135, #52, #225 ) ) ;
#34 = CARTESIAN_POINT ( 'NONE',  ( 0.0000000000000000000, 0.0000000000000000000, 0.0000000000000000000 ) ) ;
#35 = PERSON_AND_ORGANIZATION ( #301, #170 ) ;
#36 = DIRECTION ( 'NONE',  ( -0.0000000000000000000, -0.0000000000000000000, 1.000000000000000000 ) ) ;
#37 = AXIS2_PLACEMENT_3D ( 'NONE', #210, #53, #244 ) ;
#38 = MECHANICAL_CONTEXT ( 'NONE', #165, 'mechanical' ) ;
#39 = EDGE_CURVE ( 'NONE', #331, #22, #27, .T. ) ;
#40 = CARTESIAN_POINT ( 'NONE',  ( 0.0000000000000000000, 0.0000000000000000000, 38.00000000000000000 ) ) ;
#41 = ORIENTED_EDGE ( 'NONE', *, *, #4, .F. ) ;
#42 = CC_DESIGN_PERSON_AND_ORGANIZATION_ASSIGNMENT ( #81, #114, ( #338 ) ) ;
#43 = VECTOR ( 'NONE', #212, 999.9999999999998900 ) ;
#44 = CARTESIAN_POINT ( 'NONE',  ( 10.00000000000000000, 1.224646799147353300E-015, 1.000000000000000900 ) ) ;
#45 = DIRECTION ( 'NONE',  ( -1.000000000000000000, 0.0000000000000000000, 0.0000000000000000000 ) ) ;
#46 = CIRCLE ( 'NONE', #171, 7.100000000000000500 ) ;
#47 = APPROVAL_STATUS ( 'not_yet_approved' ) ;
#48 = DIRECTION ( 'NONE',  ( 1.000000000000000000, 0.0000000000000000000, 0.0000000000000000000 ) ) ;
#49 = ADVANCED_FACE ( 'NONE', ( #237 ), #191, .F. ) ;
#50 = AXIS2_PLACEMENT_3D ( 'NONE', #51, #271, #110 ) ;
#51 = CARTESIAN_POINT ( 'NONE',  ( 0.0000000000000000000, 0.0000000000000000000, 0.0000000000000000000 ) ) ;
#52 = ORIENTED_EDGE ( 'NONE', *, *, #258, .F. ) ;
#53 = DIRECTION ( 'NONE',  ( -0.0000000000000000000, -0.0000000000000000000, 1.000000000000000000 ) ) ;
#54 = VERTEX_POINT ( 'NONE', #84 ) ;
#55 = CIRCLE ( 'NONE', #251, 10.00000000000000000 ) ;
#56 = VECTOR ( 'NONE', #12, 1000.000000000000000 ) ;
#57 = EDGE_CURVE ( 'NONE', #88, #8, #160, .T. ) ;
#58 = CARTESIAN_POINT ( 'NONE',  ( 0.0000000000000000000, 0.0000000000000000000, 0.0000000000000000000 ) ) ;
#59 = DIRECTION ( 'NONE',  ( 1.000000000000000000, 0.0000000000000000000, 0.0000000000000000000 ) ) ;
#60 = DIRECTION ( 'NONE',  ( -1.000000000000000000, 0.0000000000000000000, 0.0000000000000000000 ) ) ;
#61 = CC_DESIGN_DATE_AND_TIME_ASSIGNMENT ( #138, #307, ( #338 ) ) ;
#62 = ORIENTED_EDGE ( 'NONE', *, *, #129, .T. ) ;
#63 = APPLICATION_CONTEXT ( 'configuration controlled 3d designs of mechanical parts and assemblies' ) ;
#64 = LINE ( 'NONE', #248, #341 ) ;
#65 = LINE ( 'NONE', #163, #56 ) ;
#66 = ORIENTED_EDGE ( 'NONE', *, *, #316, .F. ) ;
#67 = AXIS2_PLACEMENT_3D ( 'NONE', #134, #188, #305 ) ;
#68 = CIRCLE ( 'NONE', #104, 8.999999999999994700 ) ;
#69 = ORIENTED_EDGE ( 'NONE', *, *, #4, .T. ) ;
#70 = DIRECTION ( 'NONE',  ( 0.0000000000000000000, 0.0000000000000000000, 1.000000000000000000 ) ) ;
#71 = ORIENTED_EDGE ( 'NONE', *, *, #57, .F. ) ;
#72 = DIRECTION ( 'NONE',  ( 0.0000000000000000000, 0.0000000000000000000, 1.000000000000000000 ) ) ;
#73 = PERSON_AND_ORGANIZATION ( #301, #170 ) ;
#74 = EDGE_CURVE ( 'NONE', #116, #269, #150, .T. ) ;
#75 = ADVANCED_FACE ( 'NONE', ( #227 ), #332, .F. ) ;
#76 = CONICAL_SURFACE ( 'NONE', #238, 10.00000000000000000, 0.7853981633974491700 ) ;
#77 = ORIENTED_EDGE ( 'NONE', *, *, #121, .F. ) ;
#78 = ORIENTED_EDGE ( 'NONE', *, *, #183, .T. ) ;
#79 = PRODUCT_DEFINITION_FORMATION_WITH_SPECIFIED_SOURCE ( 'ANY', '', #172, .NOT_KNOWN. ) ;
#80 = ORIENTED_EDGE ( 'NONE', *, *, #57, .T. ) ;
#81 = PERSON_AND_ORGANIZATION ( #301, #170 ) ;
#82 = COORDINATED_UNIVERSAL_TIME_OFFSET ( 1, 0, .AHEAD. ) ;
#83 = CARTESIAN_POINT ( 'NONE',  ( 8.999999999999994700, 1.102182119232617100E-015, 38.00000000000000000 ) ) ;
#84 = CARTESIAN_POINT ( 'NONE',  ( 10.00000000000000000, 1.224646799147353300E-015, 36.99999999999999300 ) ) ;
#85 = AXIS2_PLACEMENT_3D ( 'NONE', #146, #340, #173 ) ;
#86 = CARTESIAN_POINT ( 'NONE',  ( -8.999999999999998200, 1.163414459189985300E-015, 0.0000000000000000000 ) ) ;
#87 = DIRECTION ( 'NONE',  ( 1.000000000000000000, 0.0000000000000000000, 0.0000000000000000000 ) ) ;
#88 = VERTEX_POINT ( 'NONE', #329 ) ;
#89 = LINE ( 'NONE', #109, #312 ) ;
#90 = APPROVAL_STATUS ( 'not_yet_approved' ) ;
#91 = ORIENTED_EDGE ( 'NONE', *, *, #334, .F. ) ;
#92 = LINE ( 'NONE', #185, #43 ) ;
#93 = COORDINATED_UNIVERSAL_TIME_OFFSET ( 1, 0, .AHEAD. ) ;
#94 = EDGE_CURVE ( 'NONE', #282, #111, #257, .T. ) ;
#95 = CARTESIAN_POINT ( 'NONE',  ( 8.999999999999998200, 0.0000000000000000000, 0.0000000000000000000 ) ) ;
#96 = LOCAL_TIME ( 20, 29, 56.00000000000000000, #159 ) ;
#97 = LINE ( 'NONE', #285, #267 ) ;
#98 = DIRECTION ( 'NONE',  ( -0.0000000000000000000, -0.0000000000000000000, -1.000000000000000000 ) ) ;
#99 = APPROVAL ( #137, 'UNSPECIFIED' ) ;
#100 = APPROVAL_DATE_TIME ( #168, #99 ) ;
#101 = DIRECTION ( 'NONE',  ( -0.0000000000000000000, -0.0000000000000000000, 1.000000000000000000 ) ) ;
#102 = DIRECTION ( 'NONE',  ( -0.0000000000000000000, -0.0000000000000000000, -1.000000000000000000 ) ) ;
#103 = CONICAL_SURFACE ( 'NONE', #207, 8.999999999999994700, 0.7853981633974473900 ) ;
#104 = AXIS2_PLACEMENT_3D ( 'NONE', #233, #72, #259 ) ;
#105 = CARTESIAN_POINT ( 'NONE',  ( 8.999999999999994700, 1.163414459189985300E-015, 38.00000000000000000 ) ) ;
#106 = DIRECTION ( 'NONE',  ( 0.0000000000000000000, 0.0000000000000000000, 1.000000000000000000 ) ) ;
#107 = EDGE_CURVE ( 'NONE', #282, #54, #55, .T. ) ;
#108 = SHAPE_DEFINITION_REPRESENTATION ( #290, #193 ) ;
#109 = CARTESIAN_POINT ( 'NONE',  ( -10.00000000000000000, 1.224646799147353300E-015, 1.000000000000000900 ) ) ;
#110 = DIRECTION ( 'NONE',  ( 1.000000000000000000, 0.0000000000000000000, -0.0000000000000000000 ) ) ;
#111 = VERTEX_POINT ( 'NONE', #265 ) ;
#112 = CC_DESIGN_APPROVAL ( #99, ( #79 ) ) ;
#113 =( NAMED_UNIT ( * ) SI_UNIT ( $, .STERADIAN. ) SOLID_ANGLE_UNIT ( ) );
#114 = PERSON_AND_ORGANIZATION_ROLE ( 'creator' ) ;
#115 = CONICAL_SURFACE ( 'NONE', #287, 10.00000000000000000, 0.7853981633974491700 ) ;
#116 = VERTEX_POINT ( 'NONE', #117 ) ;
#117 = CARTESIAN_POINT ( 'NONE',  ( -8.999999999999994700, 0.0000000000000000000, 38.00000000000000000 ) ) ;
#118 = ORIENTED_EDGE ( 'NONE', *, *, #276, .T. ) ;
#119 = LINE ( 'NONE', #294, #266 ) ;
#120 = CIRCLE ( 'NONE', #328, 7.100000000000000500 ) ;
#121 = EDGE_CURVE ( 'NONE', #88, #348, #119, .T. ) ;
#122 = DIRECTION ( 'NONE',  ( -0.0000000000000000000, -0.0000000000000000000, -1.000000000000000000 ) ) ;
#123 = ORIENTED_EDGE ( 'NONE', *, *, #258, .T. ) ;
#124 = ADVANCED_FACE ( 'NONE', ( #324 ), #342, .T. ) ;
#125 = DIRECTION ( 'NONE',  ( 1.000000000000000000, 0.0000000000000000000, 0.0000000000000000000 ) ) ;
#126 = CC_DESIGN_PERSON_AND_ORGANIZATION_ASSIGNMENT ( #35, #167, ( #79 ) ) ;
#127 = PLANE ( 'NONE',  #152 ) ;
#128 = FACE_OUTER_BOUND ( 'NONE', #256, .T. ) ;
#129 = EDGE_CURVE ( 'NONE', #8, #221, #97, .T. ) ;
#130 = ORIENTED_EDGE ( 'NONE', *, *, #224, .F. ) ;
#131 = FACE_OUTER_BOUND ( 'NONE', #202, .T. ) ;
#132 = AXIS2_PLACEMENT_3D ( 'NONE', #58, #315, #250 ) ;
#133 = ORIENTED_EDGE ( 'NONE', *, *, #334, .T. ) ;
#134 = CARTESIAN_POINT ( 'NONE',  ( 0.0000000000000000000, 0.0000000000000000000, 38.00000000000000000 ) ) ;
#135 = ORIENTED_EDGE ( 'NONE', *, *, #25, .T. ) ;
#136 = APPLICATION_PROTOCOL_DEFINITION ( 'international standard', 'config_control_design', 1994, #165 ) ;
#137 = APPROVAL_STATUS ( 'not_yet_approved' ) ;
#138 = DATE_AND_TIME ( #211, #284 ) ;
#139 = AXIS2_PLACEMENT_3D ( 'NONE', #228, #70, #253 ) ;
#140 = APPROVAL_DATE_TIME ( #215, #218 ) ;
#141 = VECTOR ( 'NONE', #214, 999.9999999999998900 ) ;
#142 = ORIENTED_EDGE ( 'NONE', *, *, #316, .T. ) ;
#143 = CC_DESIGN_PERSON_AND_ORGANIZATION_ASSIGNMENT ( #311, #15, ( #79 ) ) ;
#144 = ORIENTED_EDGE ( 'NONE', *, *, #94, .F. ) ;
#145 = ORIENTED_EDGE ( 'NONE', *, *, #199, .F. ) ;
#146 = CARTESIAN_POINT ( 'NONE',  ( 0.0000000000000000000, 0.0000000000000000000, 1.000000000000000900 ) ) ;
#147 = APPROVAL_DATE_TIME ( #223, #11 ) ;
#148 = DIRECTION ( 'NONE',  ( 1.000000000000000000, 0.0000000000000000000, 0.0000000000000000000 ) ) ;
#149 = APPROVAL_PERSON_ORGANIZATION ( #226, #218, #239 ) ;
#150 = CIRCLE ( 'NONE', #139, 8.999999999999994700 ) ;
#151 = ADVANCED_FACE ( 'NONE', ( #192 ), #115, .T. ) ;
#152 = AXIS2_PLACEMENT_3D ( 'NONE', #323, #106, #297 ) ;
#153 = CARTESIAN_POINT ( 'NONE',  ( 0.0000000000000000000, 0.0000000000000000000, 36.99999999999999300 ) ) ;
#154 = ORIENTED_EDGE ( 'NONE', *, *, #25, .F. ) ;
#155 = ORIENTED_EDGE ( 'NONE', *, *, #94, .T. ) ;
#156 = FACE_BOUND ( 'NONE', #339, .T. ) ;
#157 = APPROVAL_PERSON_ORGANIZATION ( #232, #11, #274 ) ;
#158 = CARTESIAN_POINT ( 'NONE',  ( 0.0000000000000000000, 0.0000000000000000000, 36.99999999999999300 ) ) ;
#159 = COORDINATED_UNIVERSAL_TIME_OFFSET ( 1, 0, .AHEAD. ) ;
#160 = CIRCLE ( 'NONE', #194, 7.100000000000000500 ) ;
#161 = AXIS2_PLACEMENT_3D ( 'NONE', #29, #204, #48 ) ;
#162 = CARTESIAN_POINT ( 'NONE',  ( 0.0000000000000000000, 0.0000000000000000000, 38.00000000000000000 ) ) ;
#163 = CARTESIAN_POINT ( 'NONE',  ( 10.00000000000000000, 1.224646799147353300E-015, 38.00000000000000000 ) ) ;
#164 = SECURITY_CLASSIFICATION ( '', '', #175 ) ;
#165 = APPLICATION_CONTEXT ( 'configuration controlled 3d designs of mechanical parts and assemblies' ) ;
#166 = FACE_OUTER_BOUND ( 'NONE', #21, .T. ) ;
#167 = PERSON_AND_ORGANIZATION_ROLE ( 'creator' ) ;
#168 = DATE_AND_TIME ( #246, #200 ) ;
#169 = DIRECTION ( 'NONE',  ( 0.0000000000000000000, 0.0000000000000000000, 1.000000000000000000 ) ) ;
#170 = ORGANIZATION ( 'UNSPECIFIED', 'UNSPECIFIED', '' ) ;
#171 = AXIS2_PLACEMENT_3D ( 'NONE', #336, #169, #17 ) ;
#172 = PRODUCT ( 'axesb', 'axesb', '', ( #38 ) ) ;
#173 = DIRECTION ( 'NONE',  ( 1.000000000000000000, 0.0000000000000000000, 0.0000000000000000000 ) ) ;
#174 = AXIS2_PLACEMENT_3D ( 'NONE', #318, #303, #60 ) ;
#175 = SECURITY_CLASSIFICATION_LEVEL ( 'unclassified' ) ;
#176 = DIRECTION ( 'NONE',  ( -1.000000000000000000, 0.0000000000000000000, 0.0000000000000000000 ) ) ;
#177 = ADVANCED_FACE ( 'NONE', ( #260 ), #76, .T. ) ;
#178 = PLANE ( 'NONE',  #50 ) ;
#179 = ORIENTED_EDGE ( 'NONE', *, *, #39, .F. ) ;
#180 = DIRECTION ( 'NONE',  ( 1.000000000000000000, 0.0000000000000000000, 0.0000000000000000000 ) ) ;
#181 = CC_DESIGN_PERSON_AND_ORGANIZATION_ASSIGNMENT ( #236, #28, ( #164 ) ) ;
#182 = VECTOR ( 'NONE', #302, 1000.000000000000000 ) ;
#183 = EDGE_CURVE ( 'NONE', #221, #348, #120, .T. ) ;
#184 = DIRECTION ( 'NONE',  ( 1.000000000000000000, 0.0000000000000000000, 0.0000000000000000000 ) ) ;
#185 = CARTESIAN_POINT ( 'NONE',  ( 10.00000000000000000, 0.0000000000000000000, 1.000000000000000900 ) ) ;
#186 = DIRECTION ( 'NONE',  ( 1.000000000000000000, 0.0000000000000000000, 0.0000000000000000000 ) ) ;
#187 = AXIS2_PLACEMENT_3D ( 'NONE', #153, #349, #180 ) ;
#188 = DIRECTION ( 'NONE',  ( 0.0000000000000000000, 0.0000000000000000000, -1.000000000000000000 ) ) ;
#189 = ORIENTED_EDGE ( 'NONE', *, *, #245, .T. ) ;
#190 = DIRECTION ( 'NONE',  ( 1.000000000000000000, 0.0000000000000000000, 0.0000000000000000000 ) ) ;
#191 = CYLINDRICAL_SURFACE ( 'NONE', #213, 7.100000000000000500 ) ;
#192 = FACE_OUTER_BOUND ( 'NONE', #254, .T. ) ;
#193 = ADVANCED_BREP_SHAPE_REPRESENTATION ( 'axesb', ( #326, #304 ), #229 ) ;
#194 = AXIS2_PLACEMENT_3D ( 'NONE', #162, #9, #186 ) ;
#195 =( LENGTH_UNIT ( ) NAMED_UNIT ( * ) SI_UNIT ( .MILLI., .METRE. ) );
#196 = ORIENTED_EDGE ( 'NONE', *, *, #283, .F. ) ;
#197 = CC_DESIGN_DATE_AND_TIME_ASSIGNMENT ( #299, #203, ( #164 ) ) ;
#198 = ORIENTED_EDGE ( 'NONE', *, *, #74, .F. ) ;
#199 = EDGE_CURVE ( 'NONE', #269, #54, #335, .T. ) ;
#200 = LOCAL_TIME ( 20, 29, 56.00000000000000000, #277 ) ;
#201 = DIRECTION ( 'NONE',  ( -0.0000000000000000000, -0.0000000000000000000, -1.000000000000000000 ) ) ;
#202 = EDGE_LOOP ( 'NONE', ( #330, #298 ) ) ;
#203 = DATE_TIME_ROLE ( 'classification_date' ) ;
#204 = DIRECTION ( 'NONE',  ( -0.0000000000000000000, -0.0000000000000000000, -1.000000000000000000 ) ) ;
#205 = CIRCLE ( 'NONE', #343, 8.999999999999998200 ) ;
#206 = ORIENTED_EDGE ( 'NONE', *, *, #129, .F. ) ;
#207 = AXIS2_PLACEMENT_3D ( 'NONE', #322, #32, #209 ) ;
#208 = EDGE_LOOP ( 'NONE', ( #196, #306, #219, #41 ) ) ;
#209 = DIRECTION ( 'NONE',  ( -1.000000000000000000, 0.0000000000000000000, 0.0000000000000000000 ) ) ;
#210 = CARTESIAN_POINT ( 'NONE',  ( 0.0000000000000000000, 0.0000000000000000000, 1.000000000000000900 ) ) ;
#211 = CALENDAR_DATE ( 2018, 24, 9 ) ;
#212 = DIRECTION ( 'NONE',  ( 0.7071067811865482400, 0.0000000000000000000, 0.7071067811865469100 ) ) ;
#213 = AXIS2_PLACEMENT_3D ( 'NONE', #319, #102, #176 ) ;
#214 = DIRECTION ( 'NONE',  ( 0.7071067811865469100, 8.659560562354926700E-017, -0.7071067811865482400 ) ) ;
#215 = DATE_AND_TIME ( #286, #18 ) ;
#216 = CARTESIAN_POINT ( 'NONE',  ( -7.100000000000000500, 0.0000000000000000000, 38.00000000000000000 ) ) ;
#217 = EDGE_LOOP ( 'NONE', ( #145, #198, #69, #91 ) ) ;
#218 = APPROVAL ( #47, 'UNSPECIFIED' ) ;
#219 = ORIENTED_EDGE ( 'NONE', *, *, #107, .F. ) ;
#220 = PERSON_AND_ORGANIZATION_ROLE ( 'design_owner' ) ;
#221 = VERTEX_POINT ( 'NONE', #347 ) ;
#222 = ORIENTED_EDGE ( 'NONE', *, *, #296, .T. ) ;
#223 = DATE_AND_TIME ( #295, #24 ) ;
#224 = EDGE_CURVE ( 'NONE', #22, #331, #205, .T. ) ;
#225 = ORIENTED_EDGE ( 'NONE', *, *, #310, .F. ) ;
#226 = PERSON_AND_ORGANIZATION ( #301, #170 ) ;
#227 = FACE_OUTER_BOUND ( 'NONE', #280, .T. ) ;
#228 = CARTESIAN_POINT ( 'NONE',  ( 0.0000000000000000000, 0.0000000000000000000, 38.00000000000000000 ) ) ;
#229 =( GEOMETRIC_REPRESENTATION_CONTEXT ( 3 ) GLOBAL_UNCERTAINTY_ASSIGNED_CONTEXT ( ( #261 ) ) GLOBAL_UNIT_ASSIGNED_CONTEXT ( ( #195, #272, #113 ) ) REPRESENTATION_CONTEXT ( 'NONE', 'WORKASPACE' ) );
#230 = ORIENTED_EDGE ( 'NONE', *, *, #107, .T. ) ;
#231 = CONICAL_SURFACE ( 'NONE', #67, 8.999999999999994700, 0.7853981633974473900 ) ;
#232 = PERSON_AND_ORGANIZATION ( #301, #170 ) ;
#233 = CARTESIAN_POINT ( 'NONE',  ( 0.0000000000000000000, 0.0000000000000000000, 38.00000000000000000 ) ) ;
#234 = ORIENTED_EDGE ( 'NONE', *, *, #310, .T. ) ;
#235 = CARTESIAN_POINT ( 'NONE',  ( 0.0000000000000000000, 0.0000000000000000000, 1.000000000000000900 ) ) ;
#236 = PERSON_AND_ORGANIZATION ( #301, #170 ) ;
#237 = FACE_OUTER_BOUND ( 'NONE', #14, .T. ) ;
#238 = AXIS2_PLACEMENT_3D ( 'NONE', #5, #36, #59 ) ;
#239 = APPROVAL_ROLE ( '' ) ;
#240 = ADVANCED_FACE ( 'NONE', ( #131, #6 ), #178, .F. ) ;
#241 = CARTESIAN_POINT ( 'NONE',  ( 0.0000000000000000000, 0.0000000000000000000, 0.0000000000000000000 ) ) ;
#242 = CARTESIAN_POINT ( 'NONE',  ( 7.100000000000000500, 8.694992273946207700E-016, 0.0000000000000000000 ) ) ;
#243 = CC_DESIGN_APPROVAL ( #218, ( #164 ) ) ;
#244 = DIRECTION ( 'NONE',  ( 1.000000000000000000, 0.0000000000000000000, 0.0000000000000000000 ) ) ;
#245 = EDGE_CURVE ( 'NONE', #54, #291, #65, .T. ) ;
#246 = CALENDAR_DATE ( 2018, 24, 9 ) ;
#247 = DIRECTION ( 'NONE',  ( -0.0000000000000000000, -0.0000000000000000000, -1.000000000000000000 ) ) ;
#248 = CARTESIAN_POINT ( 'NONE',  ( -8.999999999999994700, 0.0000000000000000000, 38.00000000000000000 ) ) ;
#249 = APPLICATION_PROTOCOL_DEFINITION ( 'international standard', 'config_control_design', 1994, #63 ) ;
#250 = DIRECTION ( 'NONE',  ( 1.000000000000000000, 0.0000000000000000000, 0.0000000000000000000 ) ) ;
#251 = AXIS2_PLACEMENT_3D ( 'NONE', #158, #2, #184 ) ;
#252 = FACE_OUTER_BOUND ( 'NONE', #208, .T. ) ;
#253 = DIRECTION ( 'NONE',  ( 1.000000000000000000, 0.0000000000000000000, 0.0000000000000000000 ) ) ;
#254 = EDGE_LOOP ( 'NONE', ( #154, #179, #234, #10 ) ) ;
#255 = CC_DESIGN_SECURITY_CLASSIFICATION ( #164, ( #79 ) ) ;
#256 = EDGE_LOOP ( 'NONE', ( #275, #133, #155, #118 ) ) ;
#257 = LINE ( 'NONE', #337, #182 ) ;
#258 = EDGE_CURVE ( 'NONE', #291, #111, #345, .T. ) ;
#259 = DIRECTION ( 'NONE',  ( 1.000000000000000000, 0.0000000000000000000, 0.0000000000000000000 ) ) ;
#260 = FACE_OUTER_BOUND ( 'NONE', #33, .T. ) ;
#261 = UNCERTAINTY_MEASURE_WITH_UNIT (LENGTH_MEASURE( 1.000000000000000100E-005 ), #195, 'distance_accuracy_value', 'NONE');
#262 = ADVANCED_FACE ( 'NONE', ( #279 ), #231, .T. ) ;
#263 = ORIENTED_EDGE ( 'NONE', *, *, #283, .T. ) ;
#264 = CARTESIAN_POINT ( 'NONE',  ( -10.00000000000000000, 0.0000000000000000000, 36.99999999999999300 ) ) ;
#265 = CARTESIAN_POINT ( 'NONE',  ( -10.00000000000000000, 0.0000000000000000000, 1.000000000000000900 ) ) ;
#266 = VECTOR ( 'NONE', #247, 1000.000000000000000 ) ;
#267 = VECTOR ( 'NONE', #122, 1000.000000000000000 ) ;
#268 = AXIS2_PLACEMENT_3D ( 'NONE', #40, #98, #281 ) ;
#269 = VERTEX_POINT ( 'NONE', #105 ) ;
#270 = EDGE_LOOP ( 'NONE', ( #78, #222 ) ) ;
#271 = DIRECTION ( 'NONE',  ( 0.0000000000000000000, 0.0000000000000000000, 1.000000000000000000 ) ) ;
#272 =( NAMED_UNIT ( * ) PLANE_ANGLE_UNIT ( ) SI_UNIT ( $, .RADIAN. ) );
#273 = PRODUCT_RELATED_PRODUCT_CATEGORY ( 'detail', '', ( #172 ) ) ;
#274 = APPROVAL_ROLE ( '' ) ;
#275 = ORIENTED_EDGE ( 'NONE', *, *, #245, .F. ) ;
#276 = EDGE_CURVE ( 'NONE', #111, #291, #308, .T. ) ;
#277 = COORDINATED_UNIVERSAL_TIME_OFFSET ( 1, 0, .AHEAD. ) ;
#278 = EDGE_LOOP ( 'NONE', ( #230, #189, #123, #144 ) ) ;
#279 = FACE_OUTER_BOUND ( 'NONE', #217, .T. ) ;
#280 = EDGE_LOOP ( 'NONE', ( #77, #80, #62, #344 ) ) ;
#281 = DIRECTION ( 'NONE',  ( -1.000000000000000000, 0.0000000000000000000, 0.0000000000000000000 ) ) ;
#282 = VERTEX_POINT ( 'NONE', #264 ) ;
#283 = EDGE_CURVE ( 'NONE', #269, #116, #68, .T. ) ;
#284 = LOCAL_TIME ( 20, 29, 56.00000000000000000, #16 ) ;
#285 = CARTESIAN_POINT ( 'NONE',  ( -7.100000000000000500, 0.0000000000000000000, 38.00000000000000000 ) ) ;
#286 = CALENDAR_DATE ( 2018, 24, 9 ) ;
#287 = AXIS2_PLACEMENT_3D ( 'NONE', #235, #101, #148 ) ;
#288 = ADVANCED_FACE ( 'NONE', ( #166, #156 ), #127, .T. ) ;
#289 = DIRECTION ( 'NONE',  ( 0.0000000000000000000, 0.0000000000000000000, 1.000000000000000000 ) ) ;
#290 = PRODUCT_DEFINITION_SHAPE ( 'NONE', 'NONE',  #338 ) ;
#291 = VERTEX_POINT ( 'NONE', #44 ) ;
#292 = CLOSED_SHELL ( 'NONE', ( #346, #177, #49, #124, #288, #240, #30, #75, #151, #262 ) ) ;
#293 = ORIENTED_EDGE ( 'NONE', *, *, #121, .T. ) ;
#294 = CARTESIAN_POINT ( 'NONE',  ( 7.100000000000000500, 8.694992273946207700E-016, 38.00000000000000000 ) ) ;
#295 = CALENDAR_DATE ( 2018, 24, 9 ) ;
#296 = EDGE_CURVE ( 'NONE', #348, #221, #23, .T. ) ;
#297 = DIRECTION ( 'NONE',  ( 1.000000000000000000, 0.0000000000000000000, -0.0000000000000000000 ) ) ;
#298 = ORIENTED_EDGE ( 'NONE', *, *, #224, .T. ) ;
#299 = DATE_AND_TIME ( #26, #96 ) ;
#300 = CYLINDRICAL_SURFACE ( 'NONE', #174, 10.00000000000000000 ) ;
#301 = PERSON ( 'UNSPECIFIED', 'UNSPECIFIED', 'UNSPECIFIED', ('UNSPECIFIED'), ('UNSPECIFIED'), ('UNSPECIFIED') ) ;
#302 = DIRECTION ( 'NONE',  ( -0.0000000000000000000, -0.0000000000000000000, -1.000000000000000000 ) ) ;
#303 = DIRECTION ( 'NONE',  ( -0.0000000000000000000, -0.0000000000000000000, -1.000000000000000000 ) ) ;
#304 = AXIS2_PLACEMENT_3D ( 'NONE', #325, #13, #190 ) ;
#305 = DIRECTION ( 'NONE',  ( -1.000000000000000000, 0.0000000000000000000, 0.0000000000000000000 ) ) ;
#306 = ORIENTED_EDGE ( 'NONE', *, *, #199, .T. ) ;
#307 = DATE_TIME_ROLE ( 'creation_date' ) ;
#308 = CIRCLE ( 'NONE', #85, 10.00000000000000000 ) ;
#309 = PERSON_AND_ORGANIZATION ( #301, #170 ) ;
#310 = EDGE_CURVE ( 'NONE', #331, #291, #92, .T. ) ;
#311 = PERSON_AND_ORGANIZATION ( #301, #170 ) ;
#312 = VECTOR ( 'NONE', #19, 999.9999999999998900 ) ;
#313 = AXIS2_PLACEMENT_3D ( 'NONE', #314, #201, #45 ) ;
#314 = CARTESIAN_POINT ( 'NONE',  ( 0.0000000000000000000, 0.0000000000000000000, 38.00000000000000000 ) ) ;
#315 = DIRECTION ( 'NONE',  ( 0.0000000000000000000, 0.0000000000000000000, 1.000000000000000000 ) ) ;
#316 = EDGE_CURVE ( 'NONE', #8, #88, #46, .T. ) ;
#317 = DIRECTION ( 'NONE',  ( -0.0000000000000000000, -0.0000000000000000000, -1.000000000000000000 ) ) ;
#318 = CARTESIAN_POINT ( 'NONE',  ( 0.0000000000000000000, 0.0000000000000000000, 38.00000000000000000 ) ) ;
#319 = CARTESIAN_POINT ( 'NONE',  ( 0.0000000000000000000, 0.0000000000000000000, 38.00000000000000000 ) ) ;
#320 = CC_DESIGN_PERSON_AND_ORGANIZATION_ASSIGNMENT ( #309, #220, ( #172 ) ) ;
#321 = ORIENTED_EDGE ( 'NONE', *, *, #74, .T. ) ;
#322 = CARTESIAN_POINT ( 'NONE',  ( 0.0000000000000000000, 0.0000000000000000000, 38.00000000000000000 ) ) ;
#323 = CARTESIAN_POINT ( 'NONE',  ( 0.0000000000000000000, 0.0000000000000000000, 38.00000000000000000 ) ) ;
#324 = FACE_OUTER_BOUND ( 'NONE', #278, .T. ) ;
#325 = CARTESIAN_POINT ( 'NONE',  ( 0.0000000000000000000, 0.0000000000000000000, 0.0000000000000000000 ) ) ;
#326 = MANIFOLD_SOLID_BREP ( 'Chanfrein1', #292 ) ;
#327 = CIRCLE ( 'NONE', #187, 10.00000000000000000 ) ;
#328 = AXIS2_PLACEMENT_3D ( 'NONE', #34, #289, #125 ) ;
#329 = CARTESIAN_POINT ( 'NONE',  ( 7.100000000000000500, 8.694992273946207700E-016, 38.00000000000000000 ) ) ;
#330 = ORIENTED_EDGE ( 'NONE', *, *, #39, .T. ) ;
#331 = VERTEX_POINT ( 'NONE', #95 ) ;
#332 = CYLINDRICAL_SURFACE ( 'NONE', #268, 7.100000000000000500 ) ;
#333 = APPROVAL_ROLE ( '' ) ;
#334 = EDGE_CURVE ( 'NONE', #54, #282, #327, .T. ) ;
#335 = LINE ( 'NONE', #83, #141 ) ;
#336 = CARTESIAN_POINT ( 'NONE',  ( 0.0000000000000000000, 0.0000000000000000000, 38.00000000000000000 ) ) ;
#337 = CARTESIAN_POINT ( 'NONE',  ( -10.00000000000000000, 0.0000000000000000000, 38.00000000000000000 ) ) ;
#338 = PRODUCT_DEFINITION ( 'UNKNOWN', '', #79, #20 ) ;
#339 = EDGE_LOOP ( 'NONE', ( #66, #71 ) ) ;
#340 = DIRECTION ( 'NONE',  ( -0.0000000000000000000, -0.0000000000000000000, 1.000000000000000000 ) ) ;
#341 = VECTOR ( 'NONE', #7, 999.9999999999998900 ) ;
#342 = CYLINDRICAL_SURFACE ( 'NONE', #313, 10.00000000000000000 ) ;
#343 = AXIS2_PLACEMENT_3D ( 'NONE', #241, #317, #87 ) ;
#344 = ORIENTED_EDGE ( 'NONE', *, *, #296, .F. ) ;
#345 = CIRCLE ( 'NONE', #37, 10.00000000000000000 ) ;
#346 = ADVANCED_FACE ( 'NONE', ( #252 ), #103, .T. ) ;
#347 = CARTESIAN_POINT ( 'NONE',  ( -7.100000000000000500, 0.0000000000000000000, 0.0000000000000000000 ) ) ;
#348 = VERTEX_POINT ( 'NONE', #242 ) ;
#349 = DIRECTION ( 'NONE',  ( 0.0000000000000000000, 0.0000000000000000000, -1.000000000000000000 ) ) ;
ENDSEC;
END-ISO-10303-21;
