ISO-10303-21;
HEADER;
/* Generated by software containing ST-Developer
 * from STEP Tools, Inc. (www.steptools.com) 
 */

FILE_DESCRIPTION(
/* description */ (''),
/* implementation_level */ '2;1');

FILE_NAME(
/* name */ 'L:\\BE\\MECA\\plan etudes\\projet CHOP\\clamp.stp',
/* time_stamp */ '2018-09-06T07:38:43+02:00',
/* author */ ('B011343'),
/* organization */ ('Eneria'),
/* preprocessor_version */ 'ST-DEVELOPER v16.1',
/* originating_system */ 'Autodesk Inventor 2016',
/* authorisation */ '');

FILE_SCHEMA (('AUTOMOTIVE_DESIGN { 1 0 10303 214 3 1 1 }'));
ENDSEC;

DATA;
#10=MECHANICAL_DESIGN_GEOMETRIC_PRESENTATION_REPRESENTATION('',(#13),#471);
#11=SHAPE_REPRESENTATION_RELATIONSHIP('SRR','None',#480,#12);
#12=ADVANCED_BREP_SHAPE_REPRESENTATION('',(#14),#470);
#13=STYLED_ITEM('',(#489),#14);
#14=MANIFOLD_SOLID_BREP('Solide1',#287);
#15=CYLINDRICAL_SURFACE('',#295,36.);
#16=CYLINDRICAL_SURFACE('',#305,29.45);
#17=CIRCLE('',#291,36.);
#18=CIRCLE('',#292,31.);
#19=CIRCLE('',#296,36.);
#20=CIRCLE('',#301,31.);
#21=CIRCLE('',#306,29.45);
#22=CIRCLE('',#307,29.45);
#23=CONICAL_SURFACE('',#290,33.5,45.);
#24=CONICAL_SURFACE('',#300,33.5,45.);
#25=FACE_OUTER_BOUND('',#41,.T.);
#26=FACE_OUTER_BOUND('',#42,.T.);
#27=FACE_OUTER_BOUND('',#43,.T.);
#28=FACE_OUTER_BOUND('',#44,.T.);
#29=FACE_OUTER_BOUND('',#45,.T.);
#30=FACE_OUTER_BOUND('',#46,.T.);
#31=FACE_OUTER_BOUND('',#47,.T.);
#32=FACE_OUTER_BOUND('',#48,.T.);
#33=FACE_OUTER_BOUND('',#49,.T.);
#34=FACE_OUTER_BOUND('',#50,.T.);
#35=FACE_OUTER_BOUND('',#51,.T.);
#36=FACE_OUTER_BOUND('',#52,.T.);
#37=FACE_OUTER_BOUND('',#53,.T.);
#38=FACE_OUTER_BOUND('',#54,.T.);
#39=FACE_OUTER_BOUND('',#55,.T.);
#40=FACE_OUTER_BOUND('',#56,.T.);
#41=EDGE_LOOP('',(#183,#184,#185,#186));
#42=EDGE_LOOP('',(#187,#188,#189,#190));
#43=EDGE_LOOP('',(#191,#192,#193,#194));
#44=EDGE_LOOP('',(#195,#196,#197,#198));
#45=EDGE_LOOP('',(#199,#200,#201,#202));
#46=EDGE_LOOP('',(#203,#204,#205,#206));
#47=EDGE_LOOP('',(#207,#208,#209,#210,#211,#212));
#48=EDGE_LOOP('',(#213,#214,#215,#216));
#49=EDGE_LOOP('',(#217,#218,#219,#220));
#50=EDGE_LOOP('',(#221,#222,#223,#224));
#51=EDGE_LOOP('',(#225,#226,#227,#228,#229,#230));
#52=EDGE_LOOP('',(#231,#232,#233,#234));
#53=EDGE_LOOP('',(#235,#236,#237,#238));
#54=EDGE_LOOP('',(#239,#240,#241,#242));
#55=EDGE_LOOP('',(#243,#244,#245,#246,#247,#248,#249,#250));
#56=EDGE_LOOP('',(#251,#252,#253,#254,#255,#256,#257,#258));
#57=LINE('',#393,#89);
#58=LINE('',#395,#90);
#59=LINE('',#397,#91);
#60=LINE('',#398,#92);
#61=LINE('',#402,#93);
#62=LINE('',#408,#94);
#63=LINE('',#409,#95);
#64=LINE('',#410,#96);
#65=LINE('',#413,#97);
#66=LINE('',#415,#98);
#67=LINE('',#416,#99);
#68=LINE('',#419,#100);
#69=LINE('',#423,#101);
#70=LINE('',#424,#102);
#71=LINE('',#427,#103);
#72=LINE('',#429,#104);
#73=LINE('',#431,#105);
#74=LINE('',#432,#106);
#75=LINE('',#435,#107);
#76=LINE('',#437,#108);
#77=LINE('',#438,#109);
#78=LINE('',#441,#110);
#79=LINE('',#444,#111);
#80=LINE('',#447,#112);
#81=LINE('',#449,#113);
#82=LINE('',#450,#114);
#83=LINE('',#453,#115);
#84=LINE('',#455,#116);
#85=LINE('',#456,#117);
#86=LINE('',#462,#118);
#87=LINE('',#464,#119);
#88=LINE('',#465,#120);
#89=VECTOR('',#315,7.07106781186548);
#90=VECTOR('',#316,44.);
#91=VECTOR('',#317,7.07106781186547);
#92=VECTOR('',#318,44.);
#93=VECTOR('',#321,7.07106781186548);
#94=VECTOR('',#328,7.07106781186548);
#95=VECTOR('',#329,44.);
#96=VECTOR('',#330,44.);
#97=VECTOR('',#333,18.);
#98=VECTOR('',#334,44.);
#99=VECTOR('',#335,18.);
#100=VECTOR('',#338,18.);
#101=VECTOR('',#343,18.);
#102=VECTOR('',#344,44.);
#103=VECTOR('',#347,29.5);
#104=VECTOR('',#348,28.);
#105=VECTOR('',#349,29.5);
#106=VECTOR('',#350,7.07106781186548);
#107=VECTOR('',#353,7.07106781186547);
#108=VECTOR('',#354,7.07106781186547);
#109=VECTOR('',#355,44.);
#110=VECTOR('',#358,7.07106781186547);
#111=VECTOR('',#363,44.);
#112=VECTOR('',#366,29.5);
#113=VECTOR('',#367,28.);
#114=VECTOR('',#368,29.5);
#115=VECTOR('',#371,14.5882251470606);
#116=VECTOR('',#372,14.5882251470606);
#117=VECTOR('',#373,28.);
#118=VECTOR('',#380,28.);
#119=VECTOR('',#383,14.5882251470606);
#120=VECTOR('',#384,14.5882251470606);
#121=VERTEX_POINT('',#391);
#122=VERTEX_POINT('',#392);
#123=VERTEX_POINT('',#394);
#124=VERTEX_POINT('',#396);
#125=VERTEX_POINT('',#400);
#126=VERTEX_POINT('',#401);
#127=VERTEX_POINT('',#406);
#128=VERTEX_POINT('',#407);
#129=VERTEX_POINT('',#412);
#130=VERTEX_POINT('',#414);
#131=VERTEX_POINT('',#418);
#132=VERTEX_POINT('',#422);
#133=VERTEX_POINT('',#426);
#134=VERTEX_POINT('',#428);
#135=VERTEX_POINT('',#430);
#136=VERTEX_POINT('',#434);
#137=VERTEX_POINT('',#436);
#138=VERTEX_POINT('',#440);
#139=VERTEX_POINT('',#446);
#140=VERTEX_POINT('',#448);
#141=VERTEX_POINT('',#452);
#142=VERTEX_POINT('',#454);
#143=VERTEX_POINT('',#458);
#144=VERTEX_POINT('',#460);
#145=EDGE_CURVE('',#121,#122,#57,.T.);
#146=EDGE_CURVE('',#122,#123,#58,.T.);
#147=EDGE_CURVE('',#123,#124,#59,.T.);
#148=EDGE_CURVE('',#124,#121,#60,.T.);
#149=EDGE_CURVE('',#125,#126,#61,.T.);
#150=EDGE_CURVE('',#126,#124,#17,.T.);
#151=EDGE_CURVE('',#123,#125,#18,.T.);
#152=EDGE_CURVE('',#127,#128,#62,.T.);
#153=EDGE_CURVE('',#128,#126,#63,.T.);
#154=EDGE_CURVE('',#125,#127,#64,.T.);
#155=EDGE_CURVE('',#124,#129,#65,.T.);
#156=EDGE_CURVE('',#130,#129,#66,.T.);
#157=EDGE_CURVE('',#121,#130,#67,.T.);
#158=EDGE_CURVE('',#126,#131,#68,.T.);
#159=EDGE_CURVE('',#129,#131,#19,.T.);
#160=EDGE_CURVE('',#128,#132,#69,.T.);
#161=EDGE_CURVE('',#131,#132,#70,.T.);
#162=EDGE_CURVE('',#127,#133,#71,.T.);
#163=EDGE_CURVE('',#133,#134,#72,.T.);
#164=EDGE_CURVE('',#135,#134,#73,.T.);
#165=EDGE_CURVE('',#132,#135,#74,.T.);
#166=EDGE_CURVE('',#136,#130,#75,.T.);
#167=EDGE_CURVE('',#129,#137,#76,.T.);
#168=EDGE_CURVE('',#137,#136,#77,.T.);
#169=EDGE_CURVE('',#131,#138,#78,.T.);
#170=EDGE_CURVE('',#138,#137,#20,.T.);
#171=EDGE_CURVE('',#135,#138,#79,.T.);
#172=EDGE_CURVE('',#139,#136,#80,.T.);
#173=EDGE_CURVE('',#140,#139,#81,.T.);
#174=EDGE_CURVE('',#140,#122,#82,.T.);
#175=EDGE_CURVE('',#141,#140,#83,.T.);
#176=EDGE_CURVE('',#142,#139,#84,.T.);
#177=EDGE_CURVE('',#141,#142,#85,.T.);
#178=EDGE_CURVE('',#143,#141,#21,.T.);
#179=EDGE_CURVE('',#144,#142,#22,.T.);
#180=EDGE_CURVE('',#143,#144,#86,.T.);
#181=EDGE_CURVE('',#133,#143,#87,.T.);
#182=EDGE_CURVE('',#134,#144,#88,.T.);
#183=ORIENTED_EDGE('',*,*,#145,.T.);
#184=ORIENTED_EDGE('',*,*,#146,.T.);
#185=ORIENTED_EDGE('',*,*,#147,.T.);
#186=ORIENTED_EDGE('',*,*,#148,.T.);
#187=ORIENTED_EDGE('',*,*,#149,.T.);
#188=ORIENTED_EDGE('',*,*,#150,.T.);
#189=ORIENTED_EDGE('',*,*,#147,.F.);
#190=ORIENTED_EDGE('',*,*,#151,.T.);
#191=ORIENTED_EDGE('',*,*,#152,.T.);
#192=ORIENTED_EDGE('',*,*,#153,.T.);
#193=ORIENTED_EDGE('',*,*,#149,.F.);
#194=ORIENTED_EDGE('',*,*,#154,.T.);
#195=ORIENTED_EDGE('',*,*,#148,.F.);
#196=ORIENTED_EDGE('',*,*,#155,.T.);
#197=ORIENTED_EDGE('',*,*,#156,.F.);
#198=ORIENTED_EDGE('',*,*,#157,.F.);
#199=ORIENTED_EDGE('',*,*,#150,.F.);
#200=ORIENTED_EDGE('',*,*,#158,.T.);
#201=ORIENTED_EDGE('',*,*,#159,.F.);
#202=ORIENTED_EDGE('',*,*,#155,.F.);
#203=ORIENTED_EDGE('',*,*,#153,.F.);
#204=ORIENTED_EDGE('',*,*,#160,.T.);
#205=ORIENTED_EDGE('',*,*,#161,.F.);
#206=ORIENTED_EDGE('',*,*,#158,.F.);
#207=ORIENTED_EDGE('',*,*,#152,.F.);
#208=ORIENTED_EDGE('',*,*,#162,.T.);
#209=ORIENTED_EDGE('',*,*,#163,.T.);
#210=ORIENTED_EDGE('',*,*,#164,.F.);
#211=ORIENTED_EDGE('',*,*,#165,.F.);
#212=ORIENTED_EDGE('',*,*,#160,.F.);
#213=ORIENTED_EDGE('',*,*,#166,.T.);
#214=ORIENTED_EDGE('',*,*,#156,.T.);
#215=ORIENTED_EDGE('',*,*,#167,.T.);
#216=ORIENTED_EDGE('',*,*,#168,.T.);
#217=ORIENTED_EDGE('',*,*,#169,.T.);
#218=ORIENTED_EDGE('',*,*,#170,.T.);
#219=ORIENTED_EDGE('',*,*,#167,.F.);
#220=ORIENTED_EDGE('',*,*,#159,.T.);
#221=ORIENTED_EDGE('',*,*,#165,.T.);
#222=ORIENTED_EDGE('',*,*,#171,.T.);
#223=ORIENTED_EDGE('',*,*,#169,.F.);
#224=ORIENTED_EDGE('',*,*,#161,.T.);
#225=ORIENTED_EDGE('',*,*,#145,.F.);
#226=ORIENTED_EDGE('',*,*,#157,.T.);
#227=ORIENTED_EDGE('',*,*,#166,.F.);
#228=ORIENTED_EDGE('',*,*,#172,.F.);
#229=ORIENTED_EDGE('',*,*,#173,.F.);
#230=ORIENTED_EDGE('',*,*,#174,.T.);
#231=ORIENTED_EDGE('',*,*,#175,.T.);
#232=ORIENTED_EDGE('',*,*,#173,.T.);
#233=ORIENTED_EDGE('',*,*,#176,.F.);
#234=ORIENTED_EDGE('',*,*,#177,.F.);
#235=ORIENTED_EDGE('',*,*,#178,.T.);
#236=ORIENTED_EDGE('',*,*,#177,.T.);
#237=ORIENTED_EDGE('',*,*,#179,.F.);
#238=ORIENTED_EDGE('',*,*,#180,.F.);
#239=ORIENTED_EDGE('',*,*,#181,.T.);
#240=ORIENTED_EDGE('',*,*,#180,.T.);
#241=ORIENTED_EDGE('',*,*,#182,.F.);
#242=ORIENTED_EDGE('',*,*,#163,.F.);
#243=ORIENTED_EDGE('',*,*,#171,.F.);
#244=ORIENTED_EDGE('',*,*,#164,.T.);
#245=ORIENTED_EDGE('',*,*,#182,.T.);
#246=ORIENTED_EDGE('',*,*,#179,.T.);
#247=ORIENTED_EDGE('',*,*,#176,.T.);
#248=ORIENTED_EDGE('',*,*,#172,.T.);
#249=ORIENTED_EDGE('',*,*,#168,.F.);
#250=ORIENTED_EDGE('',*,*,#170,.F.);
#251=ORIENTED_EDGE('',*,*,#146,.F.);
#252=ORIENTED_EDGE('',*,*,#174,.F.);
#253=ORIENTED_EDGE('',*,*,#175,.F.);
#254=ORIENTED_EDGE('',*,*,#178,.F.);
#255=ORIENTED_EDGE('',*,*,#181,.F.);
#256=ORIENTED_EDGE('',*,*,#162,.F.);
#257=ORIENTED_EDGE('',*,*,#154,.F.);
#258=ORIENTED_EDGE('',*,*,#151,.F.);
#259=PLANE('',#289);
#260=PLANE('',#293);
#261=PLANE('',#294);
#262=PLANE('',#297);
#263=PLANE('',#298);
#264=PLANE('',#299);
#265=PLANE('',#302);
#266=PLANE('',#303);
#267=PLANE('',#304);
#268=PLANE('',#308);
#269=PLANE('',#309);
#270=PLANE('',#310);
#271=ADVANCED_FACE('',(#25),#259,.T.);
#272=ADVANCED_FACE('',(#26),#23,.T.);
#273=ADVANCED_FACE('',(#27),#260,.T.);
#274=ADVANCED_FACE('',(#28),#261,.T.);
#275=ADVANCED_FACE('',(#29),#15,.T.);
#276=ADVANCED_FACE('',(#30),#262,.T.);
#277=ADVANCED_FACE('',(#31),#263,.T.);
#278=ADVANCED_FACE('',(#32),#264,.T.);
#279=ADVANCED_FACE('',(#33),#24,.T.);
#280=ADVANCED_FACE('',(#34),#265,.T.);
#281=ADVANCED_FACE('',(#35),#266,.T.);
#282=ADVANCED_FACE('',(#36),#267,.T.);
#283=ADVANCED_FACE('',(#37),#16,.F.);
#284=ADVANCED_FACE('',(#38),#268,.T.);
#285=ADVANCED_FACE('',(#39),#269,.T.);
#286=ADVANCED_FACE('',(#40),#270,.F.);
#287=CLOSED_SHELL('',(#271,#272,#273,#274,#275,#276,#277,#278,#279,#280,
#281,#282,#283,#284,#285,#286));
#288=AXIS2_PLACEMENT_3D('placement',#389,#311,#312);
#289=AXIS2_PLACEMENT_3D('',#390,#313,#314);
#290=AXIS2_PLACEMENT_3D('',#399,#319,#320);
#291=AXIS2_PLACEMENT_3D('',#403,#322,#323);
#292=AXIS2_PLACEMENT_3D('',#404,#324,#325);
#293=AXIS2_PLACEMENT_3D('',#405,#326,#327);
#294=AXIS2_PLACEMENT_3D('',#411,#331,#332);
#295=AXIS2_PLACEMENT_3D('',#417,#336,#337);
#296=AXIS2_PLACEMENT_3D('',#420,#339,#340);
#297=AXIS2_PLACEMENT_3D('',#421,#341,#342);
#298=AXIS2_PLACEMENT_3D('',#425,#345,#346);
#299=AXIS2_PLACEMENT_3D('',#433,#351,#352);
#300=AXIS2_PLACEMENT_3D('',#439,#356,#357);
#301=AXIS2_PLACEMENT_3D('',#442,#359,#360);
#302=AXIS2_PLACEMENT_3D('',#443,#361,#362);
#303=AXIS2_PLACEMENT_3D('',#445,#364,#365);
#304=AXIS2_PLACEMENT_3D('',#451,#369,#370);
#305=AXIS2_PLACEMENT_3D('',#457,#374,#375);
#306=AXIS2_PLACEMENT_3D('',#459,#376,#377);
#307=AXIS2_PLACEMENT_3D('',#461,#378,#379);
#308=AXIS2_PLACEMENT_3D('',#463,#381,#382);
#309=AXIS2_PLACEMENT_3D('',#466,#385,#386);
#310=AXIS2_PLACEMENT_3D('',#467,#387,#388);
#311=DIRECTION('axis',(0.,0.,1.));
#312=DIRECTION('refdir',(1.,0.,0.));
#313=DIRECTION('center_axis',(-9.37927096305277E-17,-0.707106781186548,
0.707106781186547));
#314=DIRECTION('ref_axis',(1.,0.,0.));
#315=DIRECTION('',(-1.82039705354641E-16,-0.707106781186547,-0.707106781186548));
#316=DIRECTION('',(1.,-1.32642922011214E-16,0.));
#317=DIRECTION('',(-1.98254396320541E-16,0.707106781186547,0.707106781186548));
#318=DIRECTION('',(-1.,1.32642922011214E-16,0.));
#319=DIRECTION('center_axis',(1.32642922011214E-16,1.,0.));
#320=DIRECTION('ref_axis',(8.44172727254897E-17,-5.18086515519882E-33,1.));
#321=DIRECTION('',(-1.51369197839167E-15,0.707106781186548,-0.707106781186547));
#322=DIRECTION('center_axis',(-1.32642922011214E-16,-1.,0.));
#323=DIRECTION('ref_axis',(8.44172727254897E-17,0.,1.));
#324=DIRECTION('center_axis',(1.32642922011214E-16,1.,0.));
#325=DIRECTION('ref_axis',(8.44172727254897E-17,-1.11973537225265E-32,1.));
#326=DIRECTION('center_axis',(-1.65160548661608E-16,-0.707106781186548,
-0.707106781186547));
#327=DIRECTION('ref_axis',(-1.,0.,0.));
#328=DIRECTION('',(-3.64079410709281E-16,0.707106781186547,-0.707106781186548));
#329=DIRECTION('',(1.,-1.32642922011214E-16,-1.00929365875014E-16));
#330=DIRECTION('',(-1.,1.32642922011214E-16,1.00929365875014E-16));
#331=DIRECTION('center_axis',(0.,0.,1.));
#332=DIRECTION('ref_axis',(1.,0.,0.));
#333=DIRECTION('',(0.,1.,0.));
#334=DIRECTION('',(1.,-1.32642922011214E-16,0.));
#335=DIRECTION('',(0.,1.,0.));
#336=DIRECTION('center_axis',(0.,1.,0.));
#337=DIRECTION('ref_axis',(8.44172727254897E-17,0.,1.));
#338=DIRECTION('',(0.,1.,0.));
#339=DIRECTION('center_axis',(1.32642922011214E-16,1.,0.));
#340=DIRECTION('ref_axis',(8.44172727254897E-17,0.,1.));
#341=DIRECTION('center_axis',(-1.00929365875014E-16,0.,-1.));
#342=DIRECTION('ref_axis',(-1.,0.,0.));
#343=DIRECTION('',(0.,1.,0.));
#344=DIRECTION('',(-1.,1.32642922011214E-16,1.00929365875014E-16));
#345=DIRECTION('center_axis',(-1.,0.,5.1488604040587E-16));
#346=DIRECTION('ref_axis',(7.105427357601E-16,0.,1.));
#347=DIRECTION('',(5.1488604040587E-16,0.,1.));
#348=DIRECTION('',(0.,1.,0.));
#349=DIRECTION('',(5.1488604040587E-16,0.,1.));
#350=DIRECTION('',(3.64079410709281E-16,0.707106781186547,0.707106781186547));
#351=DIRECTION('center_axis',(9.37927096305277E-17,0.707106781186548,0.707106781186548));
#352=DIRECTION('ref_axis',(1.,0.,0.));
#353=DIRECTION('',(1.82039705354641E-16,-0.707106781186548,0.707106781186548));
#354=DIRECTION('',(1.98254396320541E-16,0.707106781186547,-0.707106781186547));
#355=DIRECTION('',(-1.,1.32642922011214E-16,0.));
#356=DIRECTION('center_axis',(-1.32642922011214E-16,-1.,0.));
#357=DIRECTION('ref_axis',(8.44172727254897E-17,-5.18086515519882E-33,1.));
#358=DIRECTION('',(1.70127739765273E-15,0.707106781186547,0.707106781186548));
#359=DIRECTION('center_axis',(-1.32642922011214E-16,-1.,0.));
#360=DIRECTION('ref_axis',(8.44172727254897E-17,-1.11973537225265E-32,1.));
#361=DIRECTION('center_axis',(2.2424870599447E-17,0.707106781186548,-0.707106781186548));
#362=DIRECTION('ref_axis',(-1.,0.,0.));
#363=DIRECTION('',(1.,-1.32642922011214E-16,-1.00929365875014E-16));
#364=DIRECTION('center_axis',(-1.,0.,2.57443020202935E-16));
#365=DIRECTION('ref_axis',(0.,0.,1.));
#366=DIRECTION('',(2.57443020202935E-16,0.,1.));
#367=DIRECTION('',(0.,1.,0.));
#368=DIRECTION('',(2.57443020202935E-16,0.,1.));
#369=DIRECTION('center_axis',(-1.33182088534293E-16,0.,-1.));
#370=DIRECTION('ref_axis',(-1.,0.,1.33226762955019E-16));
#371=DIRECTION('',(-1.,0.,1.33182088534293E-16));
#372=DIRECTION('',(-1.,0.,1.33182088534293E-16));
#373=DIRECTION('',(0.,1.,0.));
#374=DIRECTION('center_axis',(0.,1.,0.));
#375=DIRECTION('ref_axis',(0.998702032357875,0.,-0.0509337860780986));
#376=DIRECTION('center_axis',(0.,-1.,0.));
#377=DIRECTION('ref_axis',(0.998702032357875,0.,-0.0509337860780986));
#378=DIRECTION('center_axis',(0.,-1.,0.));
#379=DIRECTION('ref_axis',(0.998702032357875,0.,-0.0509337860780986));
#380=DIRECTION('',(0.,1.,0.));
#381=DIRECTION('center_axis',(2.28312151773074E-16,0.,1.));
#382=DIRECTION('ref_axis',(1.,0.,-2.22044604925031E-16));
#383=DIRECTION('',(1.,0.,-2.28312151773074E-16));
#384=DIRECTION('',(1.,0.,-2.28312151773074E-16));
#385=DIRECTION('center_axis',(1.32642922011214E-16,1.,0.));
#386=DIRECTION('ref_axis',(0.,0.,1.));
#387=DIRECTION('center_axis',(1.32642922011214E-16,1.,0.));
#388=DIRECTION('ref_axis',(0.,0.,1.));
#389=CARTESIAN_POINT('',(0.,0.,0.));
#390=CARTESIAN_POINT('Origin',(-26.9477153217047,2.5,33.5));
#391=CARTESIAN_POINT('',(-44.,5.,36.));
#392=CARTESIAN_POINT('',(-44.,0.,31.));
#393=CARTESIAN_POINT('',(-44.,-6.12499999999999,24.875));
#394=CARTESIAN_POINT('',(4.44089209850063E-15,-1.35397765254696E-15,31.));
#395=CARTESIAN_POINT('',(-26.9477153217047,2.22044604925031E-15,31.));
#396=CARTESIAN_POINT('',(3.03902181811763E-15,5.,36.));
#397=CARTESIAN_POINT('',(4.44089209850063E-15,-1.35397765254696E-15,31.));
#398=CARTESIAN_POINT('',(-26.9477153217047,5.,36.));
#399=CARTESIAN_POINT('Origin',(-3.31607305028035E-16,2.5,0.));
#400=CARTESIAN_POINT('',(5.16255012810546E-16,-1.11022302462516E-15,-31.));
#401=CARTESIAN_POINT('',(-1.01871636126738E-14,5.00000000000001,-36.));
#402=CARTESIAN_POINT('',(5.16255012810546E-16,-1.11022302462516E-15,-31.));
#403=CARTESIAN_POINT('Origin',(0.,5.00000000000001,0.));
#404=CARTESIAN_POINT('Origin',(-6.6321461005607E-16,-1.11022302462516E-15,
0.));
#405=CARTESIAN_POINT('Origin',(-4.94771532170471,2.5,-33.5));
#406=CARTESIAN_POINT('',(-44.,0.,-31.));
#407=CARTESIAN_POINT('',(-44.,5.,-36.));
#408=CARTESIAN_POINT('',(-44.,2.5,-33.5));
#409=CARTESIAN_POINT('',(-4.94771532170471,5.,-36.));
#410=CARTESIAN_POINT('',(-4.94771532170471,-5.55111512312578E-16,-31.));
#411=CARTESIAN_POINT('Origin',(-44.,0.,36.));
#412=CARTESIAN_POINT('',(3.03902181811763E-15,23.,36.));
#413=CARTESIAN_POINT('',(3.03902181811763E-15,0.,36.));
#414=CARTESIAN_POINT('',(-44.,23.,36.));
#415=CARTESIAN_POINT('',(-26.9477153217047,23.,36.));
#416=CARTESIAN_POINT('',(-44.,0.,36.));
#417=CARTESIAN_POINT('Origin',(0.,0.,0.));
#418=CARTESIAN_POINT('',(-1.01871636126738E-14,23.,-36.));
#419=CARTESIAN_POINT('',(-1.01871636126738E-14,0.,-36.));
#420=CARTESIAN_POINT('Origin',(0.,23.,0.));
#421=CARTESIAN_POINT('Origin',(-1.01871636126738E-14,0.,-36.));
#422=CARTESIAN_POINT('',(-44.,23.,-36.));
#423=CARTESIAN_POINT('',(-44.,0.,-36.));
#424=CARTESIAN_POINT('',(-4.94771532170471,23.,-36.));
#425=CARTESIAN_POINT('Origin',(-44.,0.,-36.));
#426=CARTESIAN_POINT('',(-44.,0.,-1.49999999999999));
#427=CARTESIAN_POINT('',(-44.,0.,-36.));
#428=CARTESIAN_POINT('',(-44.,28.,-1.49999999999999));
#429=CARTESIAN_POINT('',(-44.,0.,-1.49999999999999));
#430=CARTESIAN_POINT('',(-44.,28.,-31.));
#431=CARTESIAN_POINT('',(-44.,28.,-36.));
#432=CARTESIAN_POINT('',(-44.,18.5,-40.5));
#433=CARTESIAN_POINT('Origin',(-26.9477153217047,25.5,33.5));
#434=CARTESIAN_POINT('',(-44.,28.,31.));
#435=CARTESIAN_POINT('',(-44.,27.125,31.875));
#436=CARTESIAN_POINT('',(4.44089209850063E-15,28.,31.));
#437=CARTESIAN_POINT('',(3.03902181811763E-15,23.,36.));
#438=CARTESIAN_POINT('',(-26.9477153217047,28.,31.));
#439=CARTESIAN_POINT('Origin',(3.31607305028034E-16,25.5,0.));
#440=CARTESIAN_POINT('',(1.84268423292268E-15,28.,-31.));
#441=CARTESIAN_POINT('',(-1.01871636126738E-14,23.,-36.));
#442=CARTESIAN_POINT('Origin',(6.63214610056068E-16,28.,0.));
#443=CARTESIAN_POINT('Origin',(-4.94771532170471,25.5,-33.5));
#444=CARTESIAN_POINT('',(-4.94771532170471,28.,-31.));
#445=CARTESIAN_POINT('Origin',(-44.,0.,1.50000000000001));
#446=CARTESIAN_POINT('',(-44.,28.,1.5));
#447=CARTESIAN_POINT('',(-44.,28.,1.50000000000001));
#448=CARTESIAN_POINT('',(-44.,0.,1.50000000000001));
#449=CARTESIAN_POINT('',(-44.,0.,1.50000000000001));
#450=CARTESIAN_POINT('',(-44.,0.,1.50000000000001));
#451=CARTESIAN_POINT('Origin',(-29.4117748529394,0.,1.5));
#452=CARTESIAN_POINT('',(-29.4117748529394,0.,1.5));
#453=CARTESIAN_POINT('',(-29.4117748529394,0.,1.5));
#454=CARTESIAN_POINT('',(-29.4117748529394,28.,1.5));
#455=CARTESIAN_POINT('',(-29.4117748529394,28.,1.5));
#456=CARTESIAN_POINT('',(-29.4117748529394,0.,1.5));
#457=CARTESIAN_POINT('Origin',(0.,0.,0.));
#458=CARTESIAN_POINT('',(-29.4117748529394,0.,-1.5));
#459=CARTESIAN_POINT('Origin',(0.,0.,0.));
#460=CARTESIAN_POINT('',(-29.4117748529394,28.,-1.49999999999999));
#461=CARTESIAN_POINT('Origin',(0.,28.,0.));
#462=CARTESIAN_POINT('',(-29.4117748529394,0.,-1.5));
#463=CARTESIAN_POINT('Origin',(-44.,0.,-1.49999999999999));
#464=CARTESIAN_POINT('',(-44.,0.,-1.49999999999999));
#465=CARTESIAN_POINT('',(-44.,28.,-1.49999999999999));
#466=CARTESIAN_POINT('Origin',(-9.89543064340941,28.,-6.53828222607578E-16));
#467=CARTESIAN_POINT('Origin',(-9.89543064340941,0.,-6.53828222607578E-16));
#468=UNCERTAINTY_MEASURE_WITH_UNIT(LENGTH_MEASURE(0.01),#472,
'DISTANCE_ACCURACY_VALUE',
'Maximum model space distance between geometric entities at asserted c
onnectivities');
#469=UNCERTAINTY_MEASURE_WITH_UNIT(LENGTH_MEASURE(1.E-6),#472,
'DISTANCE_ACCURACY_VALUE',
'Maximum model space distance between geometric entities at asserted c
onnectivities');
#470=(
GEOMETRIC_REPRESENTATION_CONTEXT(3)
GLOBAL_UNCERTAINTY_ASSIGNED_CONTEXT((#468))
GLOBAL_UNIT_ASSIGNED_CONTEXT((#472,#475,#473))
REPRESENTATION_CONTEXT('','3D')
);
#471=(
GEOMETRIC_REPRESENTATION_CONTEXT(3)
GLOBAL_UNCERTAINTY_ASSIGNED_CONTEXT((#469))
GLOBAL_UNIT_ASSIGNED_CONTEXT((#472,#475,#473))
REPRESENTATION_CONTEXT('','3D')
);
#472=(
LENGTH_UNIT()
NAMED_UNIT(*)
SI_UNIT(.MILLI.,.METRE.)
);
#473=(
NAMED_UNIT(*)
SI_UNIT($,.STERADIAN.)
SOLID_ANGLE_UNIT()
);
#474=DIMENSIONAL_EXPONENTS(0.,0.,0.,0.,0.,0.,0.);
#475=(
CONVERSION_BASED_UNIT('degree',#477)
NAMED_UNIT(#474)
PLANE_ANGLE_UNIT()
);
#476=(
NAMED_UNIT(*)
PLANE_ANGLE_UNIT()
SI_UNIT($,.RADIAN.)
);
#477=PLANE_ANGLE_MEASURE_WITH_UNIT(PLANE_ANGLE_MEASURE(0.01745329252),#476);
#478=SHAPE_DEFINITION_REPRESENTATION(#479,#480);
#479=PRODUCT_DEFINITION_SHAPE('',$,#482);
#480=SHAPE_REPRESENTATION('',(#288),#470);
#481=PRODUCT_DEFINITION_CONTEXT('part definition',#486,'design');
#482=PRODUCT_DEFINITION('clamp','clamp',#483,#481);
#483=PRODUCT_DEFINITION_FORMATION('',$,#488);
#484=PRODUCT_RELATED_PRODUCT_CATEGORY('clamp','clamp',(#488));
#485=APPLICATION_PROTOCOL_DEFINITION('international standard',
'automotive_design',2009,#486);
#486=APPLICATION_CONTEXT(
'Core Data for Automotive Mechanical Design Process');
#487=PRODUCT_CONTEXT('part definition',#486,'mechanical');
#488=PRODUCT('clamp','clamp',$,(#487));
#489=PRESENTATION_STYLE_ASSIGNMENT((#490));
#490=SURFACE_STYLE_USAGE(.BOTH.,#491);
#491=SURFACE_SIDE_STYLE('',(#492));
#492=SURFACE_STYLE_FILL_AREA(#493);
#493=FILL_AREA_STYLE('',(#494));
#494=FILL_AREA_STYLE_COLOUR('',#495);
#495=COLOUR_RGB('',0.996078431372549,0.996078431372549,1.);
ENDSEC;
END-ISO-10303-21;
