ISO-10303-21;
HEADER;
FILE_DESCRIPTION(('CATIA V5 STEP Exchange'),'2;1');

FILE_NAME('C:\\Users\\SNPN\\Desktop\\Special_Washer.stp','2018-09-17T06:04:28+00:00',('none'),('none'),'CATIA Version 5 Release 19 SP 2 (IN-10)','CATIA V5 STEP AP203','none');

FILE_SCHEMA(('CONFIG_CONTROL_DESIGN'));

ENDSEC;
/* file written by CATIA V5R19 */
DATA;
#5=PRODUCT('Pi\X2\00E8\X0\ce1','','',(#2)) ;
#1=APPLICATION_CONTEXT('configuration controlled 3D design of mechanical parts and assemblies') ;
#14=PRODUCT_DEFINITION('',' ',#6,#3) ;
#16=SECURITY_CLASSIFICATION(' ',' ',#15) ;
#15=SECURITY_CLASSIFICATION_LEVEL('unclassified') ;
#47=CARTESIAN_POINT(' ',(0.,0.,0.)) ;
#52=CARTESIAN_POINT('Axis2P3D Location',(0.,0.,1.)) ;
#57=CARTESIAN_POINT('Line Origine',(12.9,0.,1.)) ;
#61=CARTESIAN_POINT('Vertex',(12.9,0.,0.)) ;
#63=CARTESIAN_POINT('Vertex',(12.9,0.,2.)) ;
#66=CARTESIAN_POINT('Axis2P3D Location',(0.,0.,0.)) ;
#70=CARTESIAN_POINT('Vertex',(-12.9,1.5797943709E-015,0.)) ;
#73=CARTESIAN_POINT('Line Origine',(-12.9,1.5797943709E-015,1.)) ;
#77=CARTESIAN_POINT('Vertex',(-12.9,1.5797943709E-015,2.)) ;
#80=CARTESIAN_POINT('Axis2P3D Location',(0.,0.,2.)) ;
#92=CARTESIAN_POINT('Axis2P3D Location',(0.,0.,0.)) ;
#97=CARTESIAN_POINT('Axis2P3D Location',(0.,0.,2.)) ;
#109=CARTESIAN_POINT('Axis2P3D Location',(4.735,-4.66929063135,0.)) ;
#114=CARTESIAN_POINT('Line Origine',(4.735,0.,2.)) ;
#118=CARTESIAN_POINT('Vertex',(4.735,-4.66929063135,2.)) ;
#120=CARTESIAN_POINT('Vertex',(4.735,4.66929063135,2.)) ;
#123=CARTESIAN_POINT('Line Origine',(4.735,4.66929063135,1.)) ;
#127=CARTESIAN_POINT('Vertex',(4.735,4.66929063135,0.)) ;
#130=CARTESIAN_POINT('Line Origine',(4.735,0.,0.)) ;
#134=CARTESIAN_POINT('Vertex',(4.735,-4.66929063135,0.)) ;
#137=CARTESIAN_POINT('Line Origine',(4.735,-4.66929063135,1.)) ;
#149=CARTESIAN_POINT('Axis2P3D Location',(0.,0.,1.)) ;
#154=CARTESIAN_POINT('Axis2P3D Location',(0.,0.,2.)) ;
#158=CARTESIAN_POINT('Vertex',(-4.735,-4.66929063135,2.)) ;
#161=CARTESIAN_POINT('Axis2P3D Location',(0.,0.,0.)) ;
#165=CARTESIAN_POINT('Vertex',(-4.735,-4.66929063135,0.)) ;
#168=CARTESIAN_POINT('Line Origine',(-4.735,-4.66929063135,1.)) ;
#180=CARTESIAN_POINT('Axis2P3D Location',(-4.735,-4.66929063135,0.)) ;
#185=CARTESIAN_POINT('Line Origine',(-4.735,0.,2.)) ;
#189=CARTESIAN_POINT('Vertex',(-4.735,4.66929063135,2.)) ;
#192=CARTESIAN_POINT('Line Origine',(-4.735,0.,0.)) ;
#196=CARTESIAN_POINT('Vertex',(-4.735,4.66929063135,0.)) ;
#199=CARTESIAN_POINT('Line Origine',(-4.735,4.66929063135,1.)) ;
#211=CARTESIAN_POINT('Axis2P3D Location',(0.,0.,1.)) ;
#216=CARTESIAN_POINT('Axis2P3D Location',(0.,0.,2.)) ;
#221=CARTESIAN_POINT('Axis2P3D Location',(0.,0.,0.)) ;
#233=CARTESIAN_POINT('Axis2P3D Location',(0.,0.,0.)) ;
#249=CARTESIAN_POINT('Axis2P3D Location',(0.,0.,2.)) ;
#53=DIRECTION('Axis2P3D Direction',(0.,0.,1.)) ;
#54=DIRECTION('Axis2P3D XDirection',(1.,0.,0.)) ;
#58=DIRECTION('Vector Direction',(0.,0.,1.)) ;
#67=DIRECTION('Axis2P3D Direction',(0.,0.,1.)) ;
#74=DIRECTION('Vector Direction',(0.,0.,1.)) ;
#81=DIRECTION('Axis2P3D Direction',(0.,0.,1.)) ;
#93=DIRECTION('Axis2P3D Direction',(0.,0.,1.)) ;
#98=DIRECTION('Axis2P3D Direction',(0.,0.,1.)) ;
#110=DIRECTION('Axis2P3D Direction',(1.,0.,0.)) ;
#111=DIRECTION('Axis2P3D XDirection',(0.,1.,0.)) ;
#115=DIRECTION('Vector Direction',(0.,1.,0.)) ;
#124=DIRECTION('Vector Direction',(0.,0.,1.)) ;
#131=DIRECTION('Vector Direction',(0.,1.,0.)) ;
#138=DIRECTION('Vector Direction',(0.,0.,1.)) ;
#150=DIRECTION('Axis2P3D Direction',(0.,0.,1.)) ;
#151=DIRECTION('Axis2P3D XDirection',(-0.712030075188,-0.70214896712,-0.)) ;
#155=DIRECTION('Axis2P3D Direction',(0.,0.,1.)) ;
#162=DIRECTION('Axis2P3D Direction',(0.,0.,1.)) ;
#169=DIRECTION('Vector Direction',(0.,0.,1.)) ;
#181=DIRECTION('Axis2P3D Direction',(1.,0.,0.)) ;
#182=DIRECTION('Axis2P3D XDirection',(0.,1.,0.)) ;
#186=DIRECTION('Vector Direction',(0.,1.,0.)) ;
#193=DIRECTION('Vector Direction',(0.,1.,0.)) ;
#200=DIRECTION('Vector Direction',(0.,0.,1.)) ;
#212=DIRECTION('Axis2P3D Direction',(0.,0.,1.)) ;
#213=DIRECTION('Axis2P3D XDirection',(0.712030075188,0.70214896712,0.)) ;
#217=DIRECTION('Axis2P3D Direction',(0.,0.,1.)) ;
#222=DIRECTION('Axis2P3D Direction',(0.,0.,1.)) ;
#234=DIRECTION('Axis2P3D Direction',(0.,0.,1.)) ;
#235=DIRECTION('Axis2P3D XDirection',(1.,0.,0.)) ;
#250=DIRECTION('Axis2P3D Direction',(0.,0.,1.)) ;
#251=DIRECTION('Axis2P3D XDirection',(1.,0.,0.)) ;
#48=AXIS2_PLACEMENT_3D(' ',#47,$,$) ;
#55=AXIS2_PLACEMENT_3D('Cylinder Axis2P3D',#52,#53,#54) ;
#68=AXIS2_PLACEMENT_3D('Circle Axis2P3D',#66,#67,$) ;
#82=AXIS2_PLACEMENT_3D('Circle Axis2P3D',#80,#81,$) ;
#94=AXIS2_PLACEMENT_3D('Circle Axis2P3D',#92,#93,$) ;
#99=AXIS2_PLACEMENT_3D('Circle Axis2P3D',#97,#98,$) ;
#112=AXIS2_PLACEMENT_3D('Plane Axis2P3D',#109,#110,#111) ;
#152=AXIS2_PLACEMENT_3D('Cylinder Axis2P3D',#149,#150,#151) ;
#156=AXIS2_PLACEMENT_3D('Circle Axis2P3D',#154,#155,$) ;
#163=AXIS2_PLACEMENT_3D('Circle Axis2P3D',#161,#162,$) ;
#183=AXIS2_PLACEMENT_3D('Plane Axis2P3D',#180,#181,#182) ;
#214=AXIS2_PLACEMENT_3D('Cylinder Axis2P3D',#211,#212,#213) ;
#218=AXIS2_PLACEMENT_3D('Circle Axis2P3D',#216,#217,$) ;
#223=AXIS2_PLACEMENT_3D('Circle Axis2P3D',#221,#222,$) ;
#236=AXIS2_PLACEMENT_3D('Plane Axis2P3D',#233,#234,#235) ;
#252=AXIS2_PLACEMENT_3D('Plane Axis2P3D',#249,#250,#251) ;
#40=PRODUCT_DEFINITION_SHAPE(' ',' ',#14) ;
#31=APPROVAL_PERSON_ORGANIZATION(#25,#21,#19) ;
#25=PERSON_AND_ORGANIZATION(#22,#23) ;
#22=PERSON(' ',' ',' ',$,$,$) ;
#23=ORGANIZATION(' ',' ',' ') ;
#21=APPROVAL(#20,' ') ;
#20=APPROVAL_STATUS('not_yet_approved') ;
#19=APPROVAL_ROLE('APPROVER') ;
#13=DATE_AND_TIME(#11,#12) ;
#12=LOCAL_TIME(8,4,28.,#10) ;
#10=COORDINATED_UNIVERSAL_TIME_OFFSET(0,0,.AHEAD.) ;
#86=ORIENTED_EDGE('',*,*,#65,.F.) ;
#87=ORIENTED_EDGE('',*,*,#72,.T.) ;
#88=ORIENTED_EDGE('',*,*,#79,.T.) ;
#89=ORIENTED_EDGE('',*,*,#84,.F.) ;
#103=ORIENTED_EDGE('',*,*,#79,.F.) ;
#104=ORIENTED_EDGE('',*,*,#96,.T.) ;
#105=ORIENTED_EDGE('',*,*,#65,.T.) ;
#106=ORIENTED_EDGE('',*,*,#101,.F.) ;
#143=ORIENTED_EDGE('',*,*,#122,.T.) ;
#144=ORIENTED_EDGE('',*,*,#129,.F.) ;
#145=ORIENTED_EDGE('',*,*,#136,.F.) ;
#146=ORIENTED_EDGE('',*,*,#141,.T.) ;
#174=ORIENTED_EDGE('',*,*,#160,.T.) ;
#175=ORIENTED_EDGE('',*,*,#141,.F.) ;
#176=ORIENTED_EDGE('',*,*,#167,.F.) ;
#177=ORIENTED_EDGE('',*,*,#172,.T.) ;
#205=ORIENTED_EDGE('',*,*,#191,.T.) ;
#206=ORIENTED_EDGE('',*,*,#172,.F.) ;
#207=ORIENTED_EDGE('',*,*,#198,.F.) ;
#208=ORIENTED_EDGE('',*,*,#203,.T.) ;
#227=ORIENTED_EDGE('',*,*,#220,.T.) ;
#228=ORIENTED_EDGE('',*,*,#203,.F.) ;
#229=ORIENTED_EDGE('',*,*,#225,.F.) ;
#230=ORIENTED_EDGE('',*,*,#129,.T.) ;
#239=ORIENTED_EDGE('',*,*,#96,.F.) ;
#240=ORIENTED_EDGE('',*,*,#72,.F.) ;
#243=ORIENTED_EDGE('',*,*,#225,.T.) ;
#244=ORIENTED_EDGE('',*,*,#198,.T.) ;
#245=ORIENTED_EDGE('',*,*,#167,.T.) ;
#246=ORIENTED_EDGE('',*,*,#136,.T.) ;
#255=ORIENTED_EDGE('',*,*,#84,.T.) ;
#256=ORIENTED_EDGE('',*,*,#101,.T.) ;
#259=ORIENTED_EDGE('',*,*,#122,.F.) ;
#260=ORIENTED_EDGE('',*,*,#160,.F.) ;
#261=ORIENTED_EDGE('',*,*,#191,.F.) ;
#262=ORIENTED_EDGE('',*,*,#220,.F.) ;
#247=FACE_BOUND('',#242,.T.) ;
#263=FACE_BOUND('',#258,.T.) ;
#51=CLOSED_SHELL('Closed Shell',(#91,#108,#148,#179,#210,#232,#248,#264)) ;
#59=VECTOR('Line Direction',#58,1.) ;
#75=VECTOR('Line Direction',#74,1.) ;
#116=VECTOR('Line Direction',#115,1.) ;
#125=VECTOR('Line Direction',#124,1.) ;
#132=VECTOR('Line Direction',#131,1.) ;
#139=VECTOR('Line Direction',#138,1.) ;
#170=VECTOR('Line Direction',#169,1.) ;
#187=VECTOR('Line Direction',#186,1.) ;
#194=VECTOR('Line Direction',#193,1.) ;
#201=VECTOR('Line Direction',#200,1.) ;
#266=ADVANCED_BREP_SHAPE_REPRESENTATION('NONE',(#265),#46) ;
#49=SHAPE_REPRESENTATION(' ',(#48),#46) ;
#91=ADVANCED_FACE('Corps principal',(#90),#56,.T.) ;
#108=ADVANCED_FACE('Corps principal',(#107),#56,.T.) ;
#148=ADVANCED_FACE('Corps principal',(#147),#113,.F.) ;
#179=ADVANCED_FACE('Corps principal',(#178),#153,.F.) ;
#210=ADVANCED_FACE('Corps principal',(#209),#184,.T.) ;
#232=ADVANCED_FACE('Corps principal',(#231),#215,.F.) ;
#248=ADVANCED_FACE('Corps principal',(#241,#247),#237,.F.) ;
#264=ADVANCED_FACE('Corps principal',(#257,#263),#253,.T.) ;
#4=APPLICATION_PROTOCOL_DEFINITION('international standard','config_control_design',1994,#1) ;
#32=APPROVAL_DATE_TIME(#13,#21) ;
#265=MANIFOLD_SOLID_BREP('Corps principal',#51) ;
#11=CALENDAR_DATE(2018,17,9) ;
#30=CC_DESIGN_APPROVAL(#21,(#16,#6,#14)) ;
#18=CC_DESIGN_DATE_AND_TIME_ASSIGNMENT(#13,#17,(#16)) ;
#29=CC_DESIGN_DATE_AND_TIME_ASSIGNMENT(#13,#28,(#14)) ;
#17=DATE_TIME_ROLE('classification_date') ;
#28=DATE_TIME_ROLE('creation_date') ;
#27=CC_DESIGN_PERSON_AND_ORGANIZATION_ASSIGNMENT(#25,#26,(#16)) ;
#33=CC_DESIGN_PERSON_AND_ORGANIZATION_ASSIGNMENT(#25,#34,(#6)) ;
#35=CC_DESIGN_PERSON_AND_ORGANIZATION_ASSIGNMENT(#25,#36,(#6,#14)) ;
#37=CC_DESIGN_PERSON_AND_ORGANIZATION_ASSIGNMENT(#25,#38,(#5)) ;
#26=PERSON_AND_ORGANIZATION_ROLE('classification_officer') ;
#34=PERSON_AND_ORGANIZATION_ROLE('design_supplier') ;
#36=PERSON_AND_ORGANIZATION_ROLE('creator') ;
#38=PERSON_AND_ORGANIZATION_ROLE('design_owner') ;
#39=CC_DESIGN_SECURITY_CLASSIFICATION(#16,(#6)) ;
#69=CIRCLE('generated circle',#68,12.9) ;
#83=CIRCLE('generated circle',#82,12.9) ;
#95=CIRCLE('generated circle',#94,12.9) ;
#100=CIRCLE('generated circle',#99,12.9) ;
#157=CIRCLE('generated circle',#156,6.65) ;
#164=CIRCLE('generated circle',#163,6.65) ;
#219=CIRCLE('generated circle',#218,6.65) ;
#224=CIRCLE('generated circle',#223,6.65) ;
#267=SHAPE_REPRESENTATION_RELATIONSHIP(' ',' ',#49,#266) ;
#56=CYLINDRICAL_SURFACE('generated cylinder',#55,12.9) ;
#153=CYLINDRICAL_SURFACE('generated cylinder',#152,6.65) ;
#215=CYLINDRICAL_SURFACE('generated cylinder',#214,6.65) ;
#3=DESIGN_CONTEXT(' ',#1,'design') ;
#65=EDGE_CURVE('',#62,#64,#60,.T.) ;
#72=EDGE_CURVE('',#62,#71,#69,.T.) ;
#79=EDGE_CURVE('',#71,#78,#76,.T.) ;
#84=EDGE_CURVE('',#64,#78,#83,.T.) ;
#96=EDGE_CURVE('',#71,#62,#95,.T.) ;
#101=EDGE_CURVE('',#78,#64,#100,.T.) ;
#122=EDGE_CURVE('',#119,#121,#117,.T.) ;
#129=EDGE_CURVE('',#128,#121,#126,.T.) ;
#136=EDGE_CURVE('',#135,#128,#133,.T.) ;
#141=EDGE_CURVE('',#135,#119,#140,.T.) ;
#160=EDGE_CURVE('',#159,#119,#157,.T.) ;
#167=EDGE_CURVE('',#166,#135,#164,.T.) ;
#172=EDGE_CURVE('',#166,#159,#171,.T.) ;
#191=EDGE_CURVE('',#190,#159,#188,.F.) ;
#198=EDGE_CURVE('',#197,#166,#195,.F.) ;
#203=EDGE_CURVE('',#197,#190,#202,.T.) ;
#220=EDGE_CURVE('',#121,#190,#219,.T.) ;
#225=EDGE_CURVE('',#128,#197,#224,.T.) ;
#85=EDGE_LOOP('',(#86,#87,#88,#89)) ;
#102=EDGE_LOOP('',(#103,#104,#105,#106)) ;
#142=EDGE_LOOP('',(#143,#144,#145,#146)) ;
#173=EDGE_LOOP('',(#174,#175,#176,#177)) ;
#204=EDGE_LOOP('',(#205,#206,#207,#208)) ;
#226=EDGE_LOOP('',(#227,#228,#229,#230)) ;
#238=EDGE_LOOP('',(#239,#240)) ;
#242=EDGE_LOOP('',(#243,#244,#245,#246)) ;
#254=EDGE_LOOP('',(#255,#256)) ;
#258=EDGE_LOOP('',(#259,#260,#261,#262)) ;
#90=FACE_OUTER_BOUND('',#85,.T.) ;
#107=FACE_OUTER_BOUND('',#102,.T.) ;
#147=FACE_OUTER_BOUND('',#142,.T.) ;
#178=FACE_OUTER_BOUND('',#173,.T.) ;
#209=FACE_OUTER_BOUND('',#204,.T.) ;
#231=FACE_OUTER_BOUND('',#226,.T.) ;
#241=FACE_OUTER_BOUND('',#238,.T.) ;
#257=FACE_OUTER_BOUND('',#254,.T.) ;
#45=UNCERTAINTY_MEASURE_WITH_UNIT(LENGTH_MEASURE(0.005),#41,'distance_accuracy_value','CONFUSED CURVE UNCERTAINTY') ;
#60=LINE('Line',#57,#59) ;
#76=LINE('Line',#73,#75) ;
#117=LINE('Line',#114,#116) ;
#126=LINE('Line',#123,#125) ;
#133=LINE('Line',#130,#132) ;
#140=LINE('Line',#137,#139) ;
#171=LINE('Line',#168,#170) ;
#188=LINE('Line',#185,#187) ;
#195=LINE('Line',#192,#194) ;
#202=LINE('Line',#199,#201) ;
#2=MECHANICAL_CONTEXT(' ',#1,'mechanical') ;
#24=PERSONAL_ADDRESS(' ',' ',' ',' ',' ',' ',' ',' ',' ',' ',' ',' ',(#22),' ') ;
#113=PLANE('Plane',#112) ;
#184=PLANE('Plane',#183) ;
#237=PLANE('Plane',#236) ;
#253=PLANE('Plane',#252) ;
#43=PLANE_ANGLE_MEASURE_WITH_UNIT(PLANE_ANGLE_MEASURE(0.0174532925199),#42) ;
#7=PRODUCT_CATEGORY('part',$) ;
#9=PRODUCT_CATEGORY_RELATIONSHIP(' ',' ',#7,#8) ;
#6=PRODUCT_DEFINITION_FORMATION_WITH_SPECIFIED_SOURCE('',' ',#5,.NOT_KNOWN.) ;
#8=PRODUCT_RELATED_PRODUCT_CATEGORY('detail',$,(#5)) ;
#50=SHAPE_DEFINITION_REPRESENTATION(#40,#49) ;
#62=VERTEX_POINT('',#61) ;
#64=VERTEX_POINT('',#63) ;
#71=VERTEX_POINT('',#70) ;
#78=VERTEX_POINT('',#77) ;
#119=VERTEX_POINT('',#118) ;
#121=VERTEX_POINT('',#120) ;
#128=VERTEX_POINT('',#127) ;
#135=VERTEX_POINT('',#134) ;
#159=VERTEX_POINT('',#158) ;
#166=VERTEX_POINT('',#165) ;
#190=VERTEX_POINT('',#189) ;
#197=VERTEX_POINT('',#196) ;
#41=(LENGTH_UNIT()NAMED_UNIT(*)SI_UNIT(.MILLI.,.METRE.)) ;
#42=(NAMED_UNIT(*)PLANE_ANGLE_UNIT()SI_UNIT($,.RADIAN.)) ;
#44=(NAMED_UNIT(*)SI_UNIT($,.STERADIAN.)SOLID_ANGLE_UNIT()) ;
#46=(GEOMETRIC_REPRESENTATION_CONTEXT(3)GLOBAL_UNCERTAINTY_ASSIGNED_CONTEXT((#45))GLOBAL_UNIT_ASSIGNED_CONTEXT((#41,#42,#44))REPRESENTATION_CONTEXT(' ',' ')) ;
ENDSEC;
END-ISO-10303-21;
