ISO-10303-21;
HEADER;
/* Generated by software containing ST-Developer
 * from STEP Tools, Inc. (www.steptools.com) 
 */

FILE_DESCRIPTION(
/* description */ (''),
/* implementation_level */ '2;1');

FILE_NAME(
/* name */ 
'/Volumes/SD 256/BARBECUE SOLAIRE/3D models/Demi Cylindre.step',
/* time_stamp */ '2018-10-09T17:21:45+02:00',
/* author */ ('benjamindeblanzy'),
/* organization */ (''),
/* preprocessor_version */ 'ST-DEVELOPER v17.2',
/* originating_system */ 'Autodesk Translation Framework v7.6.0.251',
/* authorisation */ '');

FILE_SCHEMA (('AUTOMOTIVE_DESIGN { 1 0 10303 214 3 1 1 }'));
ENDSEC;

DATA;
#10=MECHANICAL_DESIGN_GEOMETRIC_PRESENTATION_REPRESENTATION('',(#21),#215);
#11=ITEM_DEFINED_TRANSFORMATION($,$,#75,#79);
#12=ITEM_DEFINED_TRANSFORMATION($,$,#74,#80);
#13=(
REPRESENTATION_RELATIONSHIP($,$,#230,#229)
REPRESENTATION_RELATIONSHIP_WITH_TRANSFORMATION(#11)
SHAPE_REPRESENTATION_RELATIONSHIP()
);
#14=(
REPRESENTATION_RELATIONSHIP($,$,#229,#228)
REPRESENTATION_RELATIONSHIP_WITH_TRANSFORMATION(#12)
SHAPE_REPRESENTATION_RELATIONSHIP()
);
#15=CONTEXT_DEPENDENT_SHAPE_REPRESENTATION(#13,#226);
#16=CONTEXT_DEPENDENT_SHAPE_REPRESENTATION(#14,#227);
#17=NEXT_ASSEMBLY_USAGE_OCCURRENCE('Component3:1','Component3:1',
'Component3:1',#233,#234,'Component3:1');
#18=NEXT_ASSEMBLY_USAGE_OCCURRENCE('Component1:1','Component1:1',
'Component1:1',#232,#233,'Component1:1');
#19=SHAPE_REPRESENTATION_RELATIONSHIP('SRR','None',#230,#20);
#20=ADVANCED_BREP_SHAPE_REPRESENTATION('',(#22),#214);
#21=STYLED_ITEM('',(#248),#22);
#22=MANIFOLD_SOLID_BREP('Body1',#60);
#23=PLANE('',#78);
#24=FACE_BOUND('',#32,.T.);
#25=FACE_BOUND('',#35,.T.);
#26=CIRCLE('',#76,40.);
#27=CIRCLE('',#77,250.);
#28=FACE_OUTER_BOUND('',#31,.T.);
#29=FACE_OUTER_BOUND('',#33,.T.);
#30=FACE_OUTER_BOUND('',#34,.T.);
#31=EDGE_LOOP('',(#47,#48));
#32=EDGE_LOOP('',(#49));
#33=EDGE_LOOP('',(#50,#51,#52));
#34=EDGE_LOOP('',(#53));
#35=EDGE_LOOP('',(#54));
#36=(
BOUNDED_CURVE()
B_SPLINE_CURVE(2,(#147,#148,#149,#150,#151),.UNSPECIFIED.,.F.,.F.)
B_SPLINE_CURVE_WITH_KNOTS((3,2,3),(-1.5707963267949,0.,1.5707963267949),
 .UNSPECIFIED.)
CURVE()
GEOMETRIC_REPRESENTATION_ITEM()
RATIONAL_B_SPLINE_CURVE((1.,0.707106781186548,1.,0.707106781186548,1.))
REPRESENTATION_ITEM('')
);
#37=(
BOUNDED_CURVE()
B_SPLINE_CURVE(2,(#202,#203,#204),.UNSPECIFIED.,.F.,.F.)
B_SPLINE_CURVE_WITH_KNOTS((3,3),(0.,1.5707963267949),.UNSPECIFIED.)
CURVE()
GEOMETRIC_REPRESENTATION_ITEM()
RATIONAL_B_SPLINE_CURVE((1.,0.707106781186547,1.))
REPRESENTATION_ITEM('')
);
#38=VERTEX_POINT('',#145);
#39=VERTEX_POINT('',#146);
#40=VERTEX_POINT('',#152);
#41=VERTEX_POINT('',#199);
#42=VERTEX_POINT('',#201);
#43=EDGE_CURVE('',#38,#39,#36,.T.);
#44=EDGE_CURVE('',#40,#40,#26,.T.);
#45=EDGE_CURVE('',#41,#41,#27,.T.);
#46=EDGE_CURVE('',#41,#42,#37,.T.);
#47=ORIENTED_EDGE('',*,*,#43,.T.);
#48=ORIENTED_EDGE('',*,*,#43,.F.);
#49=ORIENTED_EDGE('',*,*,#44,.F.);
#50=ORIENTED_EDGE('',*,*,#45,.F.);
#51=ORIENTED_EDGE('',*,*,#46,.T.);
#52=ORIENTED_EDGE('',*,*,#46,.F.);
#53=ORIENTED_EDGE('',*,*,#45,.T.);
#54=ORIENTED_EDGE('',*,*,#44,.T.);
#55=(
BOUNDED_SURFACE()
B_SPLINE_SURFACE(2,2,((#100,#101,#102,#103,#104,#105,#106,#107,#108),(#109,
#110,#111,#112,#113,#114,#115,#116,#117),(#118,#119,#120,#121,#122,#123,
#124,#125,#126),(#127,#128,#129,#130,#131,#132,#133,#134,#135),(#136,#137,
#138,#139,#140,#141,#142,#143,#144)),.UNSPECIFIED.,.F.,.T.,.F.)
B_SPLINE_SURFACE_WITH_KNOTS((3,2,3),(3,2,2,2,3),(-1.5707963267949,0.,1.5707963267949),
(0.,1.5707963267949,3.14159265358979,4.71238898038469,6.28318530717959),
 .UNSPECIFIED.)
GEOMETRIC_REPRESENTATION_ITEM()
RATIONAL_B_SPLINE_SURFACE(((1.,0.707106781186548,1.,0.707106781186548,1.,
0.707106781186548,1.,0.707106781186548,1.),(0.707106781186548,0.5,0.707106781186548,
0.5,0.707106781186548,0.5,0.707106781186548,0.5,0.707106781186548),(1.,
0.707106781186548,1.,0.707106781186548,1.,0.707106781186548,1.,0.707106781186548,
1.),(0.707106781186548,0.5,0.707106781186548,0.5,0.707106781186548,0.5,
0.707106781186548,0.5,0.707106781186548),(1.,0.707106781186548,1.,0.707106781186548,
1.,0.707106781186548,1.,0.707106781186548,1.)))
REPRESENTATION_ITEM('')
SURFACE()
);
#56=(
BOUNDED_SURFACE()
B_SPLINE_SURFACE(2,2,((#154,#155,#156,#157,#158,#159,#160,#161,#162),(#163,
#164,#165,#166,#167,#168,#169,#170,#171),(#172,#173,#174,#175,#176,#177,
#178,#179,#180),(#181,#182,#183,#184,#185,#186,#187,#188,#189),(#190,#191,
#192,#193,#194,#195,#196,#197,#198)),.UNSPECIFIED.,.F.,.T.,.F.)
B_SPLINE_SURFACE_WITH_KNOTS((3,2,3),(3,2,2,2,3),(-1.5707963267949,0.,1.5707963267949),
(0.,1.5707963267949,3.14159265358979,4.71238898038469,6.28318530717959),
 .UNSPECIFIED.)
GEOMETRIC_REPRESENTATION_ITEM()
RATIONAL_B_SPLINE_SURFACE(((1.,0.707106781186548,1.,0.707106781186548,1.,
0.707106781186548,1.,0.707106781186548,1.),(0.707106781186547,0.5,0.707106781186547,
0.5,0.707106781186547,0.5,0.707106781186547,0.5,0.707106781186547),(1.,
0.707106781186548,1.,0.707106781186548,1.,0.707106781186548,1.,0.707106781186548,
1.),(0.707106781186547,0.5,0.707106781186547,0.5,0.707106781186547,0.5,
0.707106781186547,0.5,0.707106781186547),(1.,0.707106781186548,1.,0.707106781186548,
1.,0.707106781186548,1.,0.707106781186548,1.)))
REPRESENTATION_ITEM('')
SURFACE()
);
#57=ADVANCED_FACE('',(#28,#24),#55,.T.);
#58=ADVANCED_FACE('',(#29),#56,.F.);
#59=ADVANCED_FACE('',(#30,#25),#23,.T.);
#60=CLOSED_SHELL('',(#57,#58,#59));
#61=DERIVED_UNIT_ELEMENT(#63,1.);
#62=DERIVED_UNIT_ELEMENT(#217,3.);
#63=(
MASS_UNIT()
NAMED_UNIT(*)
SI_UNIT(.KILO.,.GRAM.)
);
#64=DERIVED_UNIT((#61,#62));
#65=MEASURE_REPRESENTATION_ITEM('density measure',
POSITIVE_RATIO_MEASURE(7850.),#64);
#66=PROPERTY_DEFINITION_REPRESENTATION(#71,#68);
#67=PROPERTY_DEFINITION_REPRESENTATION(#72,#69);
#68=REPRESENTATION('material name',(#70),#214);
#69=REPRESENTATION('density',(#65),#214);
#70=DESCRIPTIVE_REPRESENTATION_ITEM('Steel','Steel');
#71=PROPERTY_DEFINITION('material property','material name',#234);
#72=PROPERTY_DEFINITION('material property','density of part',#234);
#73=AXIS2_PLACEMENT_3D('placement',#97,#81,#82);
#74=AXIS2_PLACEMENT_3D('placement',#98,#83,#84);
#75=AXIS2_PLACEMENT_3D('placement',#99,#85,#86);
#76=AXIS2_PLACEMENT_3D('',#153,#87,#88);
#77=AXIS2_PLACEMENT_3D('',#200,#89,#90);
#78=AXIS2_PLACEMENT_3D('',#205,#91,#92);
#79=AXIS2_PLACEMENT_3D('',#206,#93,#94);
#80=AXIS2_PLACEMENT_3D('',#207,#95,#96);
#81=DIRECTION('axis',(0.,0.,1.));
#82=DIRECTION('refdir',(1.,0.,0.));
#83=DIRECTION('axis',(0.,0.,1.));
#84=DIRECTION('refdir',(1.,0.,0.));
#85=DIRECTION('axis',(0.,0.,1.));
#86=DIRECTION('refdir',(1.,0.,0.));
#87=DIRECTION('center_axis',(0.,-1.,0.));
#88=DIRECTION('ref_axis',(0.,0.,-1.));
#89=DIRECTION('center_axis',(0.,1.,0.));
#90=DIRECTION('ref_axis',(0.,0.,-1.));
#91=DIRECTION('center_axis',(0.,1.,0.));
#92=DIRECTION('ref_axis',(0.,0.,1.));
#93=DIRECTION('',(0.,0.,1.));
#94=DIRECTION('',(1.,0.,0.));
#95=DIRECTION('',(3.33066907387546E-16,0.,0.999999999999997));
#96=DIRECTION('',(0.999999999999999,0.,-3.33066907387546E-16));
#97=CARTESIAN_POINT('',(0.,0.,0.));
#98=CARTESIAN_POINT('',(0.,0.,0.));
#99=CARTESIAN_POINT('',(0.,0.,0.));
#100=CARTESIAN_POINT('Ctrl Pts',(-3.06161699786838E-15,-15.,-275.));
#101=CARTESIAN_POINT('Ctrl Pts',(-3.06161699786838E-15,-15.,-275.));
#102=CARTESIAN_POINT('Ctrl Pts',(0.,-15.,-275.));
#103=CARTESIAN_POINT('Ctrl Pts',(3.06161699786838E-15,-15.,-275.));
#104=CARTESIAN_POINT('Ctrl Pts',(3.06161699786838E-15,-15.,-275.));
#105=CARTESIAN_POINT('Ctrl Pts',(3.06161699786838E-15,-15.,-275.));
#106=CARTESIAN_POINT('Ctrl Pts',(0.,-15.,-275.));
#107=CARTESIAN_POINT('Ctrl Pts',(-3.06161699786838E-15,-15.,-275.));
#108=CARTESIAN_POINT('Ctrl Pts',(-3.06161699786838E-15,-15.,-275.));
#109=CARTESIAN_POINT('Ctrl Pts',(-50.,-15.,-275.));
#110=CARTESIAN_POINT('Ctrl Pts',(-50.,-40.,-275.));
#111=CARTESIAN_POINT('Ctrl Pts',(4.44089209850063E-15,-40.,-275.));
#112=CARTESIAN_POINT('Ctrl Pts',(50.,-40.,-275.));
#113=CARTESIAN_POINT('Ctrl Pts',(50.,-15.,-275.));
#114=CARTESIAN_POINT('Ctrl Pts',(50.,10.,-275.));
#115=CARTESIAN_POINT('Ctrl Pts',(-4.44089209850063E-15,10.,-275.));
#116=CARTESIAN_POINT('Ctrl Pts',(-50.,9.99999999999999,-275.));
#117=CARTESIAN_POINT('Ctrl Pts',(-50.,-15.,-275.));
#118=CARTESIAN_POINT('Ctrl Pts',(-50.,-15.,-225.));
#119=CARTESIAN_POINT('Ctrl Pts',(-50.,-40.,-225.));
#120=CARTESIAN_POINT('Ctrl Pts',(4.44089209850063E-15,-40.,-225.));
#121=CARTESIAN_POINT('Ctrl Pts',(50.,-40.,-225.));
#122=CARTESIAN_POINT('Ctrl Pts',(50.,-15.,-225.));
#123=CARTESIAN_POINT('Ctrl Pts',(50.,10.,-225.));
#124=CARTESIAN_POINT('Ctrl Pts',(-4.44089209850063E-15,10.,-225.));
#125=CARTESIAN_POINT('Ctrl Pts',(-50.,9.99999999999999,-225.));
#126=CARTESIAN_POINT('Ctrl Pts',(-50.,-15.,-225.));
#127=CARTESIAN_POINT('Ctrl Pts',(-50.,-15.,-175.));
#128=CARTESIAN_POINT('Ctrl Pts',(-50.,-40.,-175.));
#129=CARTESIAN_POINT('Ctrl Pts',(4.44089209850063E-15,-40.,-175.));
#130=CARTESIAN_POINT('Ctrl Pts',(50.,-40.,-175.));
#131=CARTESIAN_POINT('Ctrl Pts',(50.,-15.,-175.));
#132=CARTESIAN_POINT('Ctrl Pts',(50.,10.,-175.));
#133=CARTESIAN_POINT('Ctrl Pts',(-4.44089209850063E-15,10.,-175.));
#134=CARTESIAN_POINT('Ctrl Pts',(-50.,9.99999999999999,-175.));
#135=CARTESIAN_POINT('Ctrl Pts',(-50.,-15.,-175.));
#136=CARTESIAN_POINT('Ctrl Pts',(-3.06161699786838E-15,-15.,-175.));
#137=CARTESIAN_POINT('Ctrl Pts',(-3.06161699786838E-15,-15.,-175.));
#138=CARTESIAN_POINT('Ctrl Pts',(0.,-15.,-175.));
#139=CARTESIAN_POINT('Ctrl Pts',(3.06161699786838E-15,-15.,-175.));
#140=CARTESIAN_POINT('Ctrl Pts',(3.06161699786838E-15,-15.,-175.));
#141=CARTESIAN_POINT('Ctrl Pts',(3.06161699786838E-15,-15.,-175.));
#142=CARTESIAN_POINT('Ctrl Pts',(0.,-15.,-175.));
#143=CARTESIAN_POINT('Ctrl Pts',(-3.06161699786838E-15,-15.,-175.));
#144=CARTESIAN_POINT('Ctrl Pts',(-3.06161699786838E-15,-15.,-175.));
#145=CARTESIAN_POINT('',(-3.06161699786838E-15,-15.,-275.));
#146=CARTESIAN_POINT('',(-3.06161699786838E-15,-15.,-175.));
#147=CARTESIAN_POINT('Ctrl Pts',(-3.06161699786838E-15,-15.,-275.));
#148=CARTESIAN_POINT('Ctrl Pts',(-50.,-15.,-275.));
#149=CARTESIAN_POINT('Ctrl Pts',(-50.,-15.,-225.));
#150=CARTESIAN_POINT('Ctrl Pts',(-50.,-15.,-175.));
#151=CARTESIAN_POINT('Ctrl Pts',(-3.06161699786838E-15,-15.,-175.));
#152=CARTESIAN_POINT('',(-4.89858719658941E-15,0.,-185.));
#153=CARTESIAN_POINT('Origin',(0.,0.,-225.));
#154=CARTESIAN_POINT('Ctrl Pts',(1.87469972832732E-30,-125.,-225.));
#155=CARTESIAN_POINT('Ctrl Pts',(1.87469972832732E-30,-125.,-225.));
#156=CARTESIAN_POINT('Ctrl Pts',(0.,-125.,-225.));
#157=CARTESIAN_POINT('Ctrl Pts',(-1.87469972832732E-30,-125.,-225.));
#158=CARTESIAN_POINT('Ctrl Pts',(-1.87469972832732E-30,-125.,-225.));
#159=CARTESIAN_POINT('Ctrl Pts',(-1.87469972832732E-30,-125.,-225.));
#160=CARTESIAN_POINT('Ctrl Pts',(0.,-125.,-225.));
#161=CARTESIAN_POINT('Ctrl Pts',(1.87469972832732E-30,-125.,-225.));
#162=CARTESIAN_POINT('Ctrl Pts',(1.87469972832732E-30,-125.,-225.));
#163=CARTESIAN_POINT('Ctrl Pts',(3.06161699786838E-14,-125.,25.));
#164=CARTESIAN_POINT('Ctrl Pts',(250.,-125.,24.9999999999999));
#165=CARTESIAN_POINT('Ctrl Pts',(250.,-125.,-225.));
#166=CARTESIAN_POINT('Ctrl Pts',(250.,-125.,-475.));
#167=CARTESIAN_POINT('Ctrl Pts',(-3.06161699786838E-14,-125.,-475.));
#168=CARTESIAN_POINT('Ctrl Pts',(-250.,-125.,-475.));
#169=CARTESIAN_POINT('Ctrl Pts',(-250.,-125.,-225.));
#170=CARTESIAN_POINT('Ctrl Pts',(-250.,-125.,25.));
#171=CARTESIAN_POINT('Ctrl Pts',(3.06161699786838E-14,-125.,25.));
#172=CARTESIAN_POINT('Ctrl Pts',(3.06161699786838E-14,0.,25.));
#173=CARTESIAN_POINT('Ctrl Pts',(250.,0.,24.9999999999999));
#174=CARTESIAN_POINT('Ctrl Pts',(250.,0.,-225.));
#175=CARTESIAN_POINT('Ctrl Pts',(250.,0.,-475.));
#176=CARTESIAN_POINT('Ctrl Pts',(-3.06161699786838E-14,0.,-475.));
#177=CARTESIAN_POINT('Ctrl Pts',(-250.,0.,-475.));
#178=CARTESIAN_POINT('Ctrl Pts',(-250.,0.,-225.));
#179=CARTESIAN_POINT('Ctrl Pts',(-250.,0.,25.));
#180=CARTESIAN_POINT('Ctrl Pts',(3.06161699786838E-14,0.,25.));
#181=CARTESIAN_POINT('Ctrl Pts',(3.06161699786838E-14,125.,25.));
#182=CARTESIAN_POINT('Ctrl Pts',(250.,125.,24.9999999999999));
#183=CARTESIAN_POINT('Ctrl Pts',(250.,125.,-225.));
#184=CARTESIAN_POINT('Ctrl Pts',(250.,125.,-475.));
#185=CARTESIAN_POINT('Ctrl Pts',(-3.06161699786838E-14,125.,-475.));
#186=CARTESIAN_POINT('Ctrl Pts',(-250.,125.,-475.));
#187=CARTESIAN_POINT('Ctrl Pts',(-250.,125.,-225.));
#188=CARTESIAN_POINT('Ctrl Pts',(-250.,125.,25.));
#189=CARTESIAN_POINT('Ctrl Pts',(3.06161699786838E-14,125.,25.));
#190=CARTESIAN_POINT('Ctrl Pts',(1.87469972832732E-30,125.,-225.));
#191=CARTESIAN_POINT('Ctrl Pts',(1.87469972832732E-30,125.,-225.));
#192=CARTESIAN_POINT('Ctrl Pts',(0.,125.,-225.));
#193=CARTESIAN_POINT('Ctrl Pts',(-1.87469972832732E-30,125.,-225.));
#194=CARTESIAN_POINT('Ctrl Pts',(-1.87469972832732E-30,125.,-225.));
#195=CARTESIAN_POINT('Ctrl Pts',(-1.87469972832732E-30,125.,-225.));
#196=CARTESIAN_POINT('Ctrl Pts',(0.,125.,-225.));
#197=CARTESIAN_POINT('Ctrl Pts',(1.87469972832732E-30,125.,-225.));
#198=CARTESIAN_POINT('Ctrl Pts',(1.87469972832732E-30,125.,-225.));
#199=CARTESIAN_POINT('',(0.,0.,25.));
#200=CARTESIAN_POINT('Origin',(0.,0.,-225.));
#201=CARTESIAN_POINT('',(1.87469972832732E-30,-125.,-225.));
#202=CARTESIAN_POINT('Ctrl Pts',(3.06161699786838E-14,0.,25.));
#203=CARTESIAN_POINT('Ctrl Pts',(3.06161699786838E-14,-125.,25.));
#204=CARTESIAN_POINT('Ctrl Pts',(1.87469972832732E-30,-125.,-225.));
#205=CARTESIAN_POINT('Origin',(0.,0.,-225.));
#206=CARTESIAN_POINT('',(0.,0.,0.));
#207=CARTESIAN_POINT('',(8.26097611649391,0.,-6.04231395949268));
#208=UNCERTAINTY_MEASURE_WITH_UNIT(LENGTH_MEASURE(0.01),#216,
'DISTANCE_ACCURACY_VALUE',
'Maximum model space distance between geometric entities at asserted c
onnectivities');
#209=UNCERTAINTY_MEASURE_WITH_UNIT(LENGTH_MEASURE(0.01),#216,
'DISTANCE_ACCURACY_VALUE',
'Maximum model space distance between geometric entities at asserted c
onnectivities');
#210=UNCERTAINTY_MEASURE_WITH_UNIT(LENGTH_MEASURE(0.01),#216,
'DISTANCE_ACCURACY_VALUE',
'Maximum model space distance between geometric entities at asserted c
onnectivities');
#211=UNCERTAINTY_MEASURE_WITH_UNIT(LENGTH_MEASURE(0.01),#216,
'DISTANCE_ACCURACY_VALUE',
'Maximum model space distance between geometric entities at asserted c
onnectivities');
#212=(
GEOMETRIC_REPRESENTATION_CONTEXT(3)
GLOBAL_UNCERTAINTY_ASSIGNED_CONTEXT((#208))
GLOBAL_UNIT_ASSIGNED_CONTEXT((#216,#218,#219))
REPRESENTATION_CONTEXT('','3D')
);
#213=(
GEOMETRIC_REPRESENTATION_CONTEXT(3)
GLOBAL_UNCERTAINTY_ASSIGNED_CONTEXT((#209))
GLOBAL_UNIT_ASSIGNED_CONTEXT((#216,#218,#219))
REPRESENTATION_CONTEXT('','3D')
);
#214=(
GEOMETRIC_REPRESENTATION_CONTEXT(3)
GLOBAL_UNCERTAINTY_ASSIGNED_CONTEXT((#210))
GLOBAL_UNIT_ASSIGNED_CONTEXT((#216,#218,#219))
REPRESENTATION_CONTEXT('','3D')
);
#215=(
GEOMETRIC_REPRESENTATION_CONTEXT(3)
GLOBAL_UNCERTAINTY_ASSIGNED_CONTEXT((#211))
GLOBAL_UNIT_ASSIGNED_CONTEXT((#216,#218,#219))
REPRESENTATION_CONTEXT('','3D')
);
#216=(
LENGTH_UNIT()
NAMED_UNIT(*)
SI_UNIT(.MILLI.,.METRE.)
);
#217=(
LENGTH_UNIT()
NAMED_UNIT(*)
SI_UNIT($,.METRE.)
);
#218=(
NAMED_UNIT(*)
PLANE_ANGLE_UNIT()
SI_UNIT($,.RADIAN.)
);
#219=(
NAMED_UNIT(*)
SI_UNIT($,.STERADIAN.)
SOLID_ANGLE_UNIT()
);
#220=SHAPE_DEFINITION_REPRESENTATION(#223,#228);
#221=SHAPE_DEFINITION_REPRESENTATION(#224,#229);
#222=SHAPE_DEFINITION_REPRESENTATION(#225,#230);
#223=PRODUCT_DEFINITION_SHAPE('',$,#232);
#224=PRODUCT_DEFINITION_SHAPE('',$,#233);
#225=PRODUCT_DEFINITION_SHAPE('',$,#234);
#226=PRODUCT_DEFINITION_SHAPE($,$,#17);
#227=PRODUCT_DEFINITION_SHAPE($,$,#18);
#228=SHAPE_REPRESENTATION('',(#73,#80),#212);
#229=SHAPE_REPRESENTATION('',(#74,#79),#213);
#230=SHAPE_REPRESENTATION('',(#75),#214);
#231=PRODUCT_DEFINITION_CONTEXT('part definition',#242,'design');
#232=PRODUCT_DEFINITION('test 01','test 01 v16',#235,#231);
#233=PRODUCT_DEFINITION('Component1','Component1',#236,#231);
#234=PRODUCT_DEFINITION('Component3','Component3',#237,#231);
#235=PRODUCT_DEFINITION_FORMATION('',$,#244);
#236=PRODUCT_DEFINITION_FORMATION('',$,#245);
#237=PRODUCT_DEFINITION_FORMATION('',$,#246);
#238=PRODUCT_RELATED_PRODUCT_CATEGORY('test 01 v16','test 01 v16',(#244));
#239=PRODUCT_RELATED_PRODUCT_CATEGORY('Component1','Component1',(#245));
#240=PRODUCT_RELATED_PRODUCT_CATEGORY('Component3','Component3',(#246));
#241=APPLICATION_PROTOCOL_DEFINITION('international standard',
'automotive_design',2009,#242);
#242=APPLICATION_CONTEXT(
'Core Data for Automotive Mechanical Design Process');
#243=PRODUCT_CONTEXT('part definition',#242,'mechanical');
#244=PRODUCT('test 01','test 01 v16',$,(#243));
#245=PRODUCT('Component1','Component1',$,(#243));
#246=PRODUCT('Component3','Component3',$,(#243));
#247=PRESENTATION_STYLE_ASSIGNMENT((#249));
#248=PRESENTATION_STYLE_ASSIGNMENT((#250));
#249=SURFACE_STYLE_USAGE(.BOTH.,#251);
#250=SURFACE_STYLE_USAGE(.BOTH.,#252);
#251=SURFACE_SIDE_STYLE('',(#253));
#252=SURFACE_SIDE_STYLE('',(#254));
#253=SURFACE_STYLE_FILL_AREA(#255);
#254=SURFACE_STYLE_FILL_AREA(#256);
#255=FILL_AREA_STYLE('Steel - Satin',(#257));
#256=FILL_AREA_STYLE('Copper - Patina',(#258));
#257=FILL_AREA_STYLE_COLOUR('Steel - Satin',#259);
#258=FILL_AREA_STYLE_COLOUR('Copper - Patina',#260);
#259=COLOUR_RGB('Steel - Satin',0.627450980392157,0.627450980392157,0.627450980392157);
#260=COLOUR_RGB('Copper - Patina',0.929411764705882,0.807843137254902,0.764705882352941);
ENDSEC;
END-ISO-10303-21;
