ISO-10303-21;
HEADER;
/* Generated by software containing ST-Developer
 * from STEP Tools, Inc. (www.steptools.com) 
 */

FILE_DESCRIPTION(
/* description */ (''),
/* implementation_level */ '2;1');

FILE_NAME(
/* name */ 
'C:\\Users\\Nico\\Desktop\\Desamboueur\\Desamboueur Pro\\Conception\\F
ichiers stp\\Anti-tartre DN20 (3quart pouce NPT)\\Support Tore Bas.stp',

/* time_stamp */ '2018-07-10T17:22:40+02:00',
/* author */ ('Dardenne Nicolas'),
/* organization */ (''),
/* preprocessor_version */ 'ST-DEVELOPER v16.13',
/* originating_system */ 'Autodesk Inventor 2018',
/* authorisation */ '');

FILE_SCHEMA (('AUTOMOTIVE_DESIGN { 1 0 10303 214 3 1 1 }'));
ENDSEC;

DATA;
#10=MECHANICAL_DESIGN_GEOMETRIC_PRESENTATION_REPRESENTATION('',(#13),#389);
#11=SHAPE_REPRESENTATION_RELATIONSHIP('SRR','None',#396,#12);
#12=ADVANCED_BREP_SHAPE_REPRESENTATION('',(#14),#388);
#13=STYLED_ITEM('',(#406),#14);
#14=MANIFOLD_SOLID_BREP('Suppot Tore Bas',#147);
#15=TOROIDAL_SURFACE('',#176,20.4780910930626,2.);
#16=TOROIDAL_SURFACE('',#181,23.4321739671545,2.);
#17=TOROIDAL_SURFACE('',#186,21.9551325295905,7.02102503867431);
#18=TOROIDAL_SURFACE('',#187,21.9551325295905,4.02102503867431);
#19=PLANE('',#169);
#20=PLANE('',#172);
#21=PLANE('',#175);
#22=FACE_BOUND('',#56,.T.);
#23=FACE_BOUND('',#59,.T.);
#24=FACE_BOUND('',#62,.T.);
#25=FACE_BOUND('',#65,.T.);
#26=FACE_BOUND('',#67,.T.);
#27=FACE_BOUND('',#69,.T.);
#28=FACE_BOUND('',#71,.T.);
#29=FACE_BOUND('',#73,.T.);
#30=FACE_BOUND('',#74,.T.);
#31=FACE_BOUND('',#75,.T.);
#32=FACE_BOUND('',#76,.T.);
#33=FACE_BOUND('',#78,.T.);
#34=CIRCLE('',#168,1.5);
#35=CIRCLE('',#171,1.5);
#36=CIRCLE('',#174,1.5);
#37=CIRCLE('',#177,19.889748503591);
#38=CIRCLE('',#178,18.4780910930626);
#39=CIRCLE('',#180,18.4780910930626);
#40=CIRCLE('',#182,25.4321739671545);
#41=CIRCLE('',#183,24.0205165570389);
#42=CIRCLE('',#185,25.4321739671545);
#43=FACE_OUTER_BOUND('',#55,.T.);
#44=FACE_OUTER_BOUND('',#57,.T.);
#45=FACE_OUTER_BOUND('',#58,.T.);
#46=FACE_OUTER_BOUND('',#60,.T.);
#47=FACE_OUTER_BOUND('',#61,.T.);
#48=FACE_OUTER_BOUND('',#63,.T.);
#49=FACE_OUTER_BOUND('',#64,.T.);
#50=FACE_OUTER_BOUND('',#66,.T.);
#51=FACE_OUTER_BOUND('',#68,.T.);
#52=FACE_OUTER_BOUND('',#70,.T.);
#53=FACE_OUTER_BOUND('',#72,.T.);
#54=FACE_OUTER_BOUND('',#77,.T.);
#55=EDGE_LOOP('',(#106));
#56=EDGE_LOOP('',(#107));
#57=EDGE_LOOP('',(#108));
#58=EDGE_LOOP('',(#109));
#59=EDGE_LOOP('',(#110));
#60=EDGE_LOOP('',(#111));
#61=EDGE_LOOP('',(#112));
#62=EDGE_LOOP('',(#113));
#63=EDGE_LOOP('',(#114));
#64=EDGE_LOOP('',(#115));
#65=EDGE_LOOP('',(#116));
#66=EDGE_LOOP('',(#117));
#67=EDGE_LOOP('',(#118));
#68=EDGE_LOOP('',(#119));
#69=EDGE_LOOP('',(#120));
#70=EDGE_LOOP('',(#121));
#71=EDGE_LOOP('',(#122));
#72=EDGE_LOOP('',(#123));
#73=EDGE_LOOP('',(#124));
#74=EDGE_LOOP('',(#125));
#75=EDGE_LOOP('',(#126));
#76=EDGE_LOOP('',(#127));
#77=EDGE_LOOP('',(#128));
#78=EDGE_LOOP('',(#129));
#79=B_SPLINE_CURVE_WITH_KNOTS('',3,(#235,#236,#237,#238,#239,#240,#241,
#242,#243,#244,#245,#246,#247,#248,#249,#250,#251,#252,#253,#254,#255,#256,
#257,#258,#259,#260,#261,#262,#263,#264,#265,#266,#267,#268,#269,#270,#271,
#272),.UNSPECIFIED.,.T.,.F.,(4,2,2,2,2,2,2,2,2,2,2,2,2,2,2,2,2,2,4),(-0.94800270148861,
-0.919808165497713,-0.869506072729237,-0.812530024157508,-0.752859131177268,
-0.694858170617807,-0.637328750883564,-0.577075045059985,-0.525187752062849,
-0.479651583149767,-0.434829410489378,-0.385098268780258,-0.329687450652456,
-0.270722923830374,-0.213371797938947,-0.156465165678949,-0.100454932820542,
-0.0456498840811488,0.),.UNSPECIFIED.);
#80=B_SPLINE_CURVE_WITH_KNOTS('',3,(#278,#279,#280,#281,#282,#283,#284,
#285,#286,#287,#288,#289,#290,#291,#292,#293,#294,#295,#296,#297,#298,#299,
#300,#301,#302,#303,#304,#305,#306,#307,#308,#309,#310,#311,#312,#313,#314,
#315),.UNSPECIFIED.,.T.,.F.,(4,2,2,2,2,2,2,2,2,2,2,2,2,2,2,2,2,2,4),(-0.948002701485478,
-0.919808165494627,-0.869506072726347,-0.812530024154833,-0.752859131174831,
-0.694858170615613,-0.637328750881611,-0.57707504505829,-0.525187752061349,
-0.479651583148382,-0.434829410488099,-0.385098268779144,-0.329687450651462,
-0.270722923829508,-0.213371797938258,-0.156465165678526,-0.100454932820345,
-0.0456498840811094,0.),.UNSPECIFIED.);
#81=B_SPLINE_CURVE_WITH_KNOTS('',3,(#321,#322,#323,#324,#325,#326,#327,
#328,#329,#330,#331,#332,#333,#334,#335,#336,#337,#338,#339,#340,#341,#342,
#343,#344,#345,#346,#347,#348,#349,#350,#351,#352,#353,#354,#355,#356,#357,
#358,#359,#360,#361,#362,#363,#364),.UNSPECIFIED.,.T.,.F.,(4,2,2,2,2,2,
2,2,2,2,2,2,2,2,2,2,2,2,2,2,2,4),(-0.94765102981475,-0.947222410211385,
-0.920389213379713,-0.887879156502713,-0.83722290362138,-0.777988468847394,
-0.719006156783875,-0.663362792846356,-0.610111136191367,-0.550671627247778,
-0.516138698944099,-0.488972232437001,-0.460718410054189,-0.421845049244716,
-0.362076120823989,-0.302395379862127,-0.243856736827542,-0.187263086978551,
-0.132205530216439,-0.071845823873796,-0.029318129548437,0.),
 .UNSPECIFIED.);
#82=VERTEX_POINT('',#234);
#83=VERTEX_POINT('',#273);
#84=VERTEX_POINT('',#277);
#85=VERTEX_POINT('',#316);
#86=VERTEX_POINT('',#320);
#87=VERTEX_POINT('',#365);
#88=VERTEX_POINT('',#369);
#89=VERTEX_POINT('',#371);
#90=VERTEX_POINT('',#374);
#91=VERTEX_POINT('',#377);
#92=VERTEX_POINT('',#379);
#93=VERTEX_POINT('',#382);
#94=EDGE_CURVE('',#82,#82,#79,.T.);
#95=EDGE_CURVE('',#83,#83,#34,.T.);
#96=EDGE_CURVE('',#84,#84,#80,.T.);
#97=EDGE_CURVE('',#85,#85,#35,.T.);
#98=EDGE_CURVE('',#86,#86,#81,.T.);
#99=EDGE_CURVE('',#87,#87,#36,.T.);
#100=EDGE_CURVE('',#88,#88,#37,.T.);
#101=EDGE_CURVE('',#89,#89,#38,.T.);
#102=EDGE_CURVE('',#90,#90,#39,.T.);
#103=EDGE_CURVE('',#91,#91,#40,.T.);
#104=EDGE_CURVE('',#92,#92,#41,.T.);
#105=EDGE_CURVE('',#93,#93,#42,.T.);
#106=ORIENTED_EDGE('',*,*,#94,.T.);
#107=ORIENTED_EDGE('',*,*,#95,.F.);
#108=ORIENTED_EDGE('',*,*,#95,.T.);
#109=ORIENTED_EDGE('',*,*,#96,.T.);
#110=ORIENTED_EDGE('',*,*,#97,.F.);
#111=ORIENTED_EDGE('',*,*,#97,.T.);
#112=ORIENTED_EDGE('',*,*,#98,.T.);
#113=ORIENTED_EDGE('',*,*,#99,.F.);
#114=ORIENTED_EDGE('',*,*,#99,.T.);
#115=ORIENTED_EDGE('',*,*,#100,.F.);
#116=ORIENTED_EDGE('',*,*,#101,.F.);
#117=ORIENTED_EDGE('',*,*,#102,.T.);
#118=ORIENTED_EDGE('',*,*,#101,.T.);
#119=ORIENTED_EDGE('',*,*,#103,.F.);
#120=ORIENTED_EDGE('',*,*,#104,.F.);
#121=ORIENTED_EDGE('',*,*,#105,.F.);
#122=ORIENTED_EDGE('',*,*,#103,.T.);
#123=ORIENTED_EDGE('',*,*,#104,.T.);
#124=ORIENTED_EDGE('',*,*,#94,.F.);
#125=ORIENTED_EDGE('',*,*,#96,.F.);
#126=ORIENTED_EDGE('',*,*,#98,.F.);
#127=ORIENTED_EDGE('',*,*,#100,.T.);
#128=ORIENTED_EDGE('',*,*,#105,.T.);
#129=ORIENTED_EDGE('',*,*,#102,.F.);
#130=CYLINDRICAL_SURFACE('',#167,1.5);
#131=CYLINDRICAL_SURFACE('',#170,1.5);
#132=CYLINDRICAL_SURFACE('',#173,1.5);
#133=CYLINDRICAL_SURFACE('',#179,18.4780910930626);
#134=CYLINDRICAL_SURFACE('',#184,25.4321739671545);
#135=ADVANCED_FACE('',(#43,#22),#130,.F.);
#136=ADVANCED_FACE('',(#44),#19,.F.);
#137=ADVANCED_FACE('',(#45,#23),#131,.F.);
#138=ADVANCED_FACE('',(#46),#20,.F.);
#139=ADVANCED_FACE('',(#47,#24),#132,.F.);
#140=ADVANCED_FACE('',(#48),#21,.F.);
#141=ADVANCED_FACE('',(#49,#25),#15,.T.);
#142=ADVANCED_FACE('',(#50,#26),#133,.F.);
#143=ADVANCED_FACE('',(#51,#27),#16,.T.);
#144=ADVANCED_FACE('',(#52,#28),#134,.T.);
#145=ADVANCED_FACE('',(#53,#29,#30,#31,#32),#17,.T.);
#146=ADVANCED_FACE('',(#54,#33),#18,.F.);
#147=CLOSED_SHELL('',(#135,#136,#137,#138,#139,#140,#141,#142,#143,#144,
#145,#146));
#148=DERIVED_UNIT_ELEMENT(#150,0.);
#149=DERIVED_UNIT_ELEMENT(#391,0.);
#150=(
MASS_UNIT()
NAMED_UNIT(*)
SI_UNIT($,.GRAM.)
);
#151=DERIVED_UNIT((#148,#149));
#152=MEASURE_REPRESENTATION_ITEM('density measure',
POSITIVE_RATIO_MEASURE(1.),#151);
#153=PROPERTY_DEFINITION_REPRESENTATION(#158,#155);
#154=PROPERTY_DEFINITION_REPRESENTATION(#159,#156);
#155=REPRESENTATION('material name',(#157),#388);
#156=REPRESENTATION('density',(#152),#388);
#157=DESCRIPTIVE_REPRESENTATION_ITEM('G\X\E9n\X\E9rique','G\X\E9n\X\E9
rique');
#158=PROPERTY_DEFINITION('material property','material name',#398);
#159=PROPERTY_DEFINITION('material property','density of part',#398);
#160=DATE_TIME_ROLE('creation_date');
#161=APPLIED_DATE_AND_TIME_ASSIGNMENT(#162,#160,(#398));
#162=DATE_AND_TIME(#163,#164);
#163=CALENDAR_DATE(2018,20,6);
#164=LOCAL_TIME(18,29,3.,#165);
#165=COORDINATED_UNIVERSAL_TIME_OFFSET(0,0,.BEHIND.);
#166=AXIS2_PLACEMENT_3D('placement',#232,#188,#189);
#167=AXIS2_PLACEMENT_3D('',#233,#190,#191);
#168=AXIS2_PLACEMENT_3D('',#274,#192,#193);
#169=AXIS2_PLACEMENT_3D('',#275,#194,#195);
#170=AXIS2_PLACEMENT_3D('',#276,#196,#197);
#171=AXIS2_PLACEMENT_3D('',#317,#198,#199);
#172=AXIS2_PLACEMENT_3D('',#318,#200,#201);
#173=AXIS2_PLACEMENT_3D('',#319,#202,#203);
#174=AXIS2_PLACEMENT_3D('',#366,#204,#205);
#175=AXIS2_PLACEMENT_3D('',#367,#206,#207);
#176=AXIS2_PLACEMENT_3D('',#368,#208,#209);
#177=AXIS2_PLACEMENT_3D('',#370,#210,#211);
#178=AXIS2_PLACEMENT_3D('',#372,#212,#213);
#179=AXIS2_PLACEMENT_3D('',#373,#214,#215);
#180=AXIS2_PLACEMENT_3D('',#375,#216,#217);
#181=AXIS2_PLACEMENT_3D('',#376,#218,#219);
#182=AXIS2_PLACEMENT_3D('',#378,#220,#221);
#183=AXIS2_PLACEMENT_3D('',#380,#222,#223);
#184=AXIS2_PLACEMENT_3D('',#381,#224,#225);
#185=AXIS2_PLACEMENT_3D('',#383,#226,#227);
#186=AXIS2_PLACEMENT_3D('',#384,#228,#229);
#187=AXIS2_PLACEMENT_3D('',#385,#230,#231);
#188=DIRECTION('axis',(0.,0.,1.));
#189=DIRECTION('refdir',(1.,0.,0.));
#190=DIRECTION('center_axis',(0.,0.,1.));
#191=DIRECTION('ref_axis',(0.5,0.866025403784438,0.));
#192=DIRECTION('center_axis',(0.,0.,-1.));
#193=DIRECTION('ref_axis',(0.5,0.866025403784438,0.));
#194=DIRECTION('center_axis',(0.,0.,1.));
#195=DIRECTION('ref_axis',(-0.5,-0.866025403784438,0.));
#196=DIRECTION('center_axis',(0.,0.,1.));
#197=DIRECTION('ref_axis',(0.5,-0.866025403784439,0.));
#198=DIRECTION('center_axis',(0.,0.,-1.));
#199=DIRECTION('ref_axis',(0.5,-0.866025403784439,0.));
#200=DIRECTION('center_axis',(0.,0.,1.));
#201=DIRECTION('ref_axis',(-0.5,0.866025403784439,0.));
#202=DIRECTION('center_axis',(0.,0.,1.));
#203=DIRECTION('ref_axis',(-1.,0.,0.));
#204=DIRECTION('center_axis',(0.,0.,-1.));
#205=DIRECTION('ref_axis',(-1.,0.,0.));
#206=DIRECTION('center_axis',(0.,0.,1.));
#207=DIRECTION('ref_axis',(1.,0.,0.));
#208=DIRECTION('center_axis',(0.,0.,-1.));
#209=DIRECTION('ref_axis',(1.,0.,0.));
#210=DIRECTION('center_axis',(0.,0.,1.));
#211=DIRECTION('ref_axis',(-1.,1.22464679914735E-16,0.));
#212=DIRECTION('center_axis',(0.,0.,-1.));
#213=DIRECTION('ref_axis',(-1.,1.22464679914735E-16,0.));
#214=DIRECTION('center_axis',(0.,0.,1.));
#215=DIRECTION('ref_axis',(1.,0.,0.));
#216=DIRECTION('center_axis',(0.,0.,1.));
#217=DIRECTION('ref_axis',(1.,0.,0.));
#218=DIRECTION('center_axis',(0.,0.,-1.));
#219=DIRECTION('ref_axis',(1.,0.,0.));
#220=DIRECTION('center_axis',(0.,0.,1.));
#221=DIRECTION('ref_axis',(-1.,1.22464679914735E-16,0.));
#222=DIRECTION('center_axis',(0.,0.,-1.));
#223=DIRECTION('ref_axis',(-1.,1.22464679914735E-16,0.));
#224=DIRECTION('center_axis',(0.,0.,1.));
#225=DIRECTION('ref_axis',(1.,0.,0.));
#226=DIRECTION('center_axis',(0.,0.,1.));
#227=DIRECTION('ref_axis',(1.,0.,0.));
#228=DIRECTION('center_axis',(0.,0.,-1.));
#229=DIRECTION('ref_axis',(1.,0.,0.));
#230=DIRECTION('center_axis',(0.,0.,-1.));
#231=DIRECTION('ref_axis',(1.,0.,0.));
#232=CARTESIAN_POINT('',(0.,0.,0.));
#233=CARTESIAN_POINT('Origin',(296.278146646298,-19.0137024778218,-27.2960634162772));
#234=CARTESIAN_POINT('',(295.528146646298,-20.3127405834984,-29.133959272542));
#235=CARTESIAN_POINT('Ctrl Pts',(295.528146646298,-20.3127405834984,-29.133959272542));
#236=CARTESIAN_POINT('Ctrl Pts',(295.446756031578,-20.2657496901803,-29.133959272542));
#237=CARTESIAN_POINT('Ctrl Pts',(295.37000799568,-20.2112433435046,-29.1357812294115));
#238=CARTESIAN_POINT('Ctrl Pts',(295.171949634521,-20.0405434489446,-29.1456094880404));
#239=CARTESIAN_POINT('Ctrl Pts',(295.064510072592,-19.9109026379242,-29.157330871233));
#240=CARTESIAN_POINT('Ctrl Pts',(294.885796450012,-19.60288173358,-29.1891873603427));
#241=CARTESIAN_POINT('Ctrl Pts',(294.822744308886,-19.4229322718336,-29.2098845347414));
#242=CARTESIAN_POINT('Ctrl Pts',(294.765401943019,-19.0405723624742,-29.2500641393313));
#243=CARTESIAN_POINT('Ctrl Pts',(294.774985485339,-18.8407433964555,-29.2689432110981));
#244=CARTESIAN_POINT('Ctrl Pts',(294.870372598496,-18.4610672682904,-29.2930191866429));
#245=CARTESIAN_POINT('Ctrl Pts',(294.953031204241,-18.2846981280421,-29.2982293243745));
#246=CARTESIAN_POINT('Ctrl Pts',(295.180262955626,-17.9737869104469,-29.292198099686));
#247=CARTESIAN_POINT('Ctrl Pts',(295.321712311241,-17.8424956946427,-29.2811493010059));
#248=CARTESIAN_POINT('Ctrl Pts',(295.65346582537,-17.6353687738882,-29.2473543514193));
#249=CARTESIAN_POINT('Ctrl Pts',(295.842442025834,-17.5645718115303,-29.224538325542));
#250=CARTESIAN_POINT('Ctrl Pts',(296.209091985702,-17.5054718590617,-29.1837753738164));
#251=CARTESIAN_POINT('Ctrl Pts',(296.382480123082,-17.5074307070976,-29.1660021346289));
#252=CARTESIAN_POINT('Ctrl Pts',(296.700834516663,-17.5665535071394,-29.1423841116711));
#253=CARTESIAN_POINT('Ctrl Pts',(296.844711276607,-17.6165485187027,-29.1355417122399));
#254=CARTESIAN_POINT('Ctrl Pts',(297.110990365401,-17.7572434405186,-29.132892872019));
#255=CARTESIAN_POINT('Ctrl Pts',(297.231694019814,-17.8462323360693,-29.1369388808788));
#256=CARTESIAN_POINT('Ctrl Pts',(297.454458522028,-18.0683625634148,-29.1551830681495));
#257=CARTESIAN_POINT('Ctrl Pts',(297.551221806168,-18.2034962334406,-29.1702565418563));
#258=CARTESIAN_POINT('Ctrl Pts',(297.705061592045,-18.5160831923819,-29.2067771445551));
#259=CARTESIAN_POINT('Ctrl Pts',(297.75523000423,-18.6943699519825,-29.2283422201718));
#260=CARTESIAN_POINT('Ctrl Pts',(297.789708081843,-19.0719964795002,-29.2666451933134));
#261=CARTESIAN_POINT('Ctrl Pts',(297.769311318857,-19.2686566743336,-29.2824713050373));
#262=CARTESIAN_POINT('Ctrl Pts',(297.654990775685,-19.6388359996078,-29.2979577725948));
#263=CARTESIAN_POINT('Ctrl Pts',(297.564375205232,-19.8087521916113,-29.2978651052822));
#264=CARTESIAN_POINT('Ctrl Pts',(297.324994417308,-20.1045894094244,-29.2828679263245));
#265=CARTESIAN_POINT('Ctrl Pts',(297.179218054091,-20.2276674109398,-29.2683237383379));
#266=CARTESIAN_POINT('Ctrl Pts',(296.852897786281,-20.411625109459,-29.2326407685745));
#267=CARTESIAN_POINT('Ctrl Pts',(296.675532371526,-20.4719783230215,-29.2120171606355));
#268=CARTESIAN_POINT('Ctrl Pts',(296.311874887384,-20.524291182211,-29.1747321918735));
#269=CARTESIAN_POINT('Ctrl Pts',(296.128508661006,-20.5173191805257,-29.1583755636092));
#270=CARTESIAN_POINT('Ctrl Pts',(295.80232297896,-20.4443191866725,-29.1387917208577));
#271=CARTESIAN_POINT('Ctrl Pts',(295.659926510612,-20.3888237236337,-29.133959272542));
#272=CARTESIAN_POINT('Ctrl Pts',(295.528146646298,-20.3127405834984,-29.133959272542));
#273=CARTESIAN_POINT('',(295.528146646298,-20.3127405834984,-27.2960634162772));
#274=CARTESIAN_POINT('Origin',(296.278146646298,-19.0137024778218,-27.2960634162772));
#275=CARTESIAN_POINT('Origin',(296.278146646298,-19.0137024778218,-27.2960634162772));
#276=CARTESIAN_POINT('Origin',(296.278146646298,19.0137024778219,-27.2960634162772));
#277=CARTESIAN_POINT('',(295.528146646298,20.3127405834985,-29.1339592725419));
#278=CARTESIAN_POINT('Ctrl Pts',(295.528146646298,20.3127405834985,-29.1339592725419));
#279=CARTESIAN_POINT('Ctrl Pts',(295.609537261018,20.3597314768166,-29.1339592725419));
#280=CARTESIAN_POINT('Ctrl Pts',(295.695115159856,20.3989440522571,-29.1357812294114));
#281=CARTESIAN_POINT('Ctrl Pts',(295.941974785547,20.4851176771726,-29.1456094880404));
#282=CARTESIAN_POINT('Ctrl Pts',(296.107966802222,20.513342661664,-29.157330871233));
#283=CARTESIAN_POINT('Ctrl Pts',(296.464077541571,20.5141027466489,-29.1891873603427));
#284=CARTESIAN_POINT('Ctrl Pts',(296.651444417404,20.4787327717539,-29.2098845347414));
#285=CARTESIAN_POINT('Ctrl Pts',(297.011248995231,20.3372127626277,-29.2500641393312));
#286=CARTESIAN_POINT('Ctrl Pts',(297.179514185055,20.2289986885111,-29.268943211098));
#287=CARTESIAN_POINT('Ctrl Pts',(297.460629800679,19.9565529612413,-29.2930191866429));
#288=CARTESIAN_POINT('Ctrl Pts',(297.572040653705,19.7967839387008,-29.2982293243745));
#289=CARTESIAN_POINT('Ctrl Pts',(297.727681790772,19.4445398606575,-29.292198099686));
#290=CARTESIAN_POINT('Ctrl Pts',(297.770658641144,19.256395517444,-29.2811493010059));
#291=CARTESIAN_POINT('Ctrl Pts',(297.784159059261,18.8655250860356,-29.2473543514193));
#292=CARTESIAN_POINT('Ctrl Pts',(297.750982926941,18.6664684145442,-29.224538325542));
#293=CARTESIAN_POINT('Ctrl Pts',(297.618840007208,18.3193902587674,-29.1837753738164));
#294=CARTESIAN_POINT('Ctrl Pts',(297.530449526356,18.1702111510996,-29.1660021346289));
#295=CARTESIAN_POINT('Ctrl Pts',(297.320070482787,17.9240695588728,-29.1423841116711));
#296=CARTESIAN_POINT('Ctrl Pts',(297.204835152738,17.8244661355285,-29.1355417122399));
#297=CARTESIAN_POINT('Ctrl Pts',(296.949850231866,17.6642091410452,-29.132892872019));
#298=CARTESIAN_POINT('Ctrl Pts',(296.812431760458,17.6041711577692,-29.1369388808788));
#299=CARTESIAN_POINT('Ctrl Pts',(296.508679089521,17.5223165534626,-29.1551830681495));
#300=CARTESIAN_POINT('Ctrl Pts',(296.343268256302,17.5060839262568,-29.1702565418563));
#301=CARTESIAN_POINT('Ctrl Pts',(295.995640116028,17.5291482430448,-29.2067771445551));
#302=CARTESIAN_POINT('Ctrl Pts',(295.816155046964,17.5748445034262,-29.2283422201718));
#303=CARTESIAN_POINT('Ctrl Pts',(295.471881842184,17.7337988760984,-29.2666451933134));
#304=CARTESIAN_POINT('Ctrl Pts',(295.311767499038,17.8497930884158,-29.2824713050373));
#305=CARTESIAN_POINT('Ctrl Pts',(295.048343070981,18.133887245614,-29.2979577725948));
#306=CARTESIAN_POINT('Ctrl Pts',(294.946499117418,18.2973207276059,-29.2978651052822));
#307=CARTESIAN_POINT('Ctrl Pts',(294.809986965369,18.6525491800336,-29.2828679263245));
#308=CARTESIAN_POINT('Ctrl Pts',(294.776286471018,18.8403342146079,-29.2683237383379));
#309=CARTESIAN_POINT('Ctrl Pts',(294.780134564783,19.2149147055611,-29.2326407685745));
#310=CARTESIAN_POINT('Ctrl Pts',(294.816549856016,19.3986942672726,-29.2120171606355));
#311=CARTESIAN_POINT('Ctrl Pts',(294.953074333084,19.7397873164109,-29.1747321918734));
#312=CARTESIAN_POINT('Ctrl Pts',(295.050795376848,19.8951011258078,-29.1583755636092));
#313=CARTESIAN_POINT('Ctrl Pts',(295.277108067024,20.1410862158838,-29.1387917208577));
#314=CARTESIAN_POINT('Ctrl Pts',(295.396366781984,20.2366574433633,-29.1339592725419));
#315=CARTESIAN_POINT('Ctrl Pts',(295.528146646298,20.3127405834985,-29.1339592725419));
#316=CARTESIAN_POINT('',(295.528146646298,20.3127405834985,-27.2960634162772));
#317=CARTESIAN_POINT('Origin',(296.278146646298,19.0137024778219,-27.2960634162772));
#318=CARTESIAN_POINT('Origin',(296.278146646298,19.0137024778219,-27.2960634162772));
#319=CARTESIAN_POINT('Origin',(329.210845377884,0.,-27.2960634162772));
#320=CARTESIAN_POINT('',(329.159604553833,-1.49912453717182,-29.2960636439909));
#321=CARTESIAN_POINT('Ctrl Pts',(329.159604553833,-1.49912453717182,-29.2960636439909));
#322=CARTESIAN_POINT('Ctrl Pts',(329.15817665569,-1.49907573090141,-29.2960636439909));
#323=CARTESIAN_POINT('Ctrl Pts',(329.156748828199,-1.4990248845789,-29.2960632083927));
#324=CARTESIAN_POINT('Ctrl Pts',(329.065938399966,-1.49566112216386,-29.2960077893568));
#325=CARTESIAN_POINT('Ctrl Pts',(328.97708614506,-1.48436684391952,-29.2942331195557));
#326=CARTESIAN_POINT('Ctrl Pts',(328.784003750542,-1.44205828665806,-29.2866674746431));
#327=CARTESIAN_POINT('Ctrl Pts',(328.681201360466,-1.40753260303384,-29.2801264548498));
#328=CARTESIAN_POINT('Ctrl Pts',(328.430204454425,-1.29187279125807,-29.2585925501545));
#329=CARTESIAN_POINT('Ctrl Pts',(328.290539830255,-1.19632273589081,-29.2410351499935));
#330=CARTESIAN_POINT('Ctrl Pts',(328.028509704381,-0.943702298206398,-29.2009715260183));
#331=CARTESIAN_POINT('Ctrl Pts',(327.915159077173,-0.780953844200824,-29.1786160021798));
#332=CARTESIAN_POINT('Ctrl Pts',(327.757945099929,-0.421241032073475,-29.1453721197765));
#333=CARTESIAN_POINT('Ctrl Pts',(327.715281331073,-0.227951042256746,-29.1350002437176));
#334=CARTESIAN_POINT('Ctrl Pts',(327.707296799967,0.154144553111434,-29.1331265241335));
#335=CARTESIAN_POINT('Ctrl Pts',(327.737822734856,0.338246845431762,-29.1405922363977));
#336=CARTESIAN_POINT('Ctrl Pts',(327.86138936211,0.678452430694392,-29.167523620092));
#337=CARTESIAN_POINT('Ctrl Pts',(327.950665885583,0.83250000325672,-29.1860724311111));
#338=CARTESIAN_POINT('Ctrl Pts',(328.1913616359,1.11777063993544,-29.2272141458374));
#339=CARTESIAN_POINT('Ctrl Pts',(328.346897899484,1.24200384527249,-29.2494833310937));
#340=CARTESIAN_POINT('Ctrl Pts',(328.624203085072,1.38528244597261,-29.2759188820964));
#341=CARTESIAN_POINT('Ctrl Pts',(328.731917232902,1.42613249683751,-29.2836981154935));
#342=CARTESIAN_POINT('Ctrl Pts',(328.931134282231,1.47646433075921,-29.2928777242807));
#343=CARTESIAN_POINT('Ctrl Pts',(329.020696247283,1.49065233791302,-29.2952685033533));
#344=CARTESIAN_POINT('Ctrl Pts',(329.20503136924,1.50294275605616,-29.2965474208077));
#345=CARTESIAN_POINT('Ctrl Pts',(329.29934043519,1.50034328053305,-29.2952875007081));
#346=CARTESIAN_POINT('Ctrl Pts',(329.521340217746,1.47321669408741,-29.2880261072096));
#347=CARTESIAN_POINT('Ctrl Pts',(329.64712563454,1.44095410423219,-29.2804434886639));
#348=CARTESIAN_POINT('Ctrl Pts',(329.951566675781,1.3193881711179,-29.2550541830378));
#349=CARTESIAN_POINT('Ctrl Pts',(330.119311219739,1.20993027571624,-29.2341925195934));
#350=CARTESIAN_POINT('Ctrl Pts',(330.402053318517,0.932817981209603,-29.1924346665063));
#351=CARTESIAN_POINT('Ctrl Pts',(330.514760112072,0.767572049672389,-29.1720564047899));
#352=CARTESIAN_POINT('Ctrl Pts',(330.66799603705,0.405685086717527,-29.1429781833693));
#353=CARTESIAN_POINT('Ctrl Pts',(330.708374832598,0.213293362318999,-29.1344649782355));
#354=CARTESIAN_POINT('Ctrl Pts',(330.713017986082,-0.17051975213515,-29.1335145541926));
#355=CARTESIAN_POINT('Ctrl Pts',(330.679715546702,-0.357551801877359,-29.1405529963125));
#356=CARTESIAN_POINT('Ctrl Pts',(330.547663326231,-0.704587683197801,-29.1659553686293));
#357=CARTESIAN_POINT('Ctrl Pts',(330.451884041099,-0.862050669425662,-29.1836845133268));
#358=CARTESIAN_POINT('Ctrl Pts',(330.197267216962,-1.14760816087579,-29.223554070884));
#359=CARTESIAN_POINT('Ctrl Pts',(330.035441510253,-1.26894403160556,-29.2454634844703));
#360=CARTESIAN_POINT('Ctrl Pts',(329.726812742443,-1.41552913025312,-29.2747665457334));
#361=CARTESIAN_POINT('Ctrl Pts',(329.591166378552,-1.45788155394063,-29.2843773731933));
#362=CARTESIAN_POINT('Ctrl Pts',(329.354972527458,-1.49624941274423,-29.2940089787682));
#363=CARTESIAN_POINT('Ctrl Pts',(329.2572746147,-1.50246294854445,-29.2960636439909));
#364=CARTESIAN_POINT('Ctrl Pts',(329.159604553833,-1.49912453717182,-29.2960636439909));
#365=CARTESIAN_POINT('',(330.710845377884,1.83697019872103E-16,-27.2960634162772));
#366=CARTESIAN_POINT('Origin',(329.210845377884,0.,-27.2960634162772));
#367=CARTESIAN_POINT('Origin',(329.210845377884,3.85494105772624E-17,-27.2960634162772));
#368=CARTESIAN_POINT('Origin',(307.25571289016,0.,-27.0738969105569));
#369=CARTESIAN_POINT('',(327.145461393751,-4.93038065763132E-31,-28.9854023375473));
#370=CARTESIAN_POINT('Origin',(307.25571289016,0.,-28.9854023375473));
#371=CARTESIAN_POINT('',(325.733803983222,-4.52582702229447E-15,-27.0738969105569));
#372=CARTESIAN_POINT('Origin',(307.25571289016,0.,-27.0738969105569));
#373=CARTESIAN_POINT('Origin',(307.25571289016,0.,-26.3346377563803));
#374=CARTESIAN_POINT('',(325.733803983222,0.,-24.2946487703352));
#375=CARTESIAN_POINT('Origin',(307.25571289016,0.,-24.2946487703352));
#376=CARTESIAN_POINT('Origin',(307.25571289016,0.,-27.073896910238));
#377=CARTESIAN_POINT('',(332.687886857314,0.,-27.073896910238));
#378=CARTESIAN_POINT('Origin',(307.25571289016,0.,-27.073896910238));
#379=CARTESIAN_POINT('',(331.276229447199,-5.88332974308874E-15,-28.9854023371013));
#380=CARTESIAN_POINT('Origin',(307.25571289016,0.,-28.9854023371013));
#381=CARTESIAN_POINT('Origin',(307.25571289016,0.,-26.3346377541616));
#382=CARTESIAN_POINT('',(332.687886857314,0.,-24.2946487664884));
#383=CARTESIAN_POINT('Origin',(307.25571289016,0.,-24.2946487664884));
#384=CARTESIAN_POINT('Origin',(307.25571289016,0.,-22.2750386053166));
#385=CARTESIAN_POINT('Origin',(307.25571289016,0.,-22.2750386053166));
#386=UNCERTAINTY_MEASURE_WITH_UNIT(LENGTH_MEASURE(0.01),#390,
'DISTANCE_ACCURACY_VALUE',
'Maximum model space distance between geometric entities at asserted c
onnectivities');
#387=UNCERTAINTY_MEASURE_WITH_UNIT(LENGTH_MEASURE(0.01),#390,
'DISTANCE_ACCURACY_VALUE',
'Maximum model space distance between geometric entities at asserted c
onnectivities');
#388=(
GEOMETRIC_REPRESENTATION_CONTEXT(3)
GLOBAL_UNCERTAINTY_ASSIGNED_CONTEXT((#386))
GLOBAL_UNIT_ASSIGNED_CONTEXT((#390,#393,#392))
REPRESENTATION_CONTEXT('','3D')
);
#389=(
GEOMETRIC_REPRESENTATION_CONTEXT(3)
GLOBAL_UNCERTAINTY_ASSIGNED_CONTEXT((#387))
GLOBAL_UNIT_ASSIGNED_CONTEXT((#390,#393,#392))
REPRESENTATION_CONTEXT('','3D')
);
#390=(
LENGTH_UNIT()
NAMED_UNIT(*)
SI_UNIT(.MILLI.,.METRE.)
);
#391=(
LENGTH_UNIT()
NAMED_UNIT(*)
SI_UNIT(.CENTI.,.METRE.)
);
#392=(
NAMED_UNIT(*)
SI_UNIT($,.STERADIAN.)
SOLID_ANGLE_UNIT()
);
#393=(
NAMED_UNIT(*)
PLANE_ANGLE_UNIT()
SI_UNIT($,.RADIAN.)
);
#394=SHAPE_DEFINITION_REPRESENTATION(#395,#396);
#395=PRODUCT_DEFINITION_SHAPE('',$,#398);
#396=SHAPE_REPRESENTATION('',(#166),#388);
#397=PRODUCT_DEFINITION_CONTEXT('part definition',#402,'design');
#398=PRODUCT_DEFINITION('Corps Haut','Anti tartre DN20 (3.4 NPT)',#399,
#397);
#399=PRODUCT_DEFINITION_FORMATION('',$,#404);
#400=PRODUCT_RELATED_PRODUCT_CATEGORY('Anti tartre DN20 (3.4 NPT)',
'Anti tartre DN20 (3.4 NPT)',(#404));
#401=APPLICATION_PROTOCOL_DEFINITION('international standard',
'automotive_design',2009,#402);
#402=APPLICATION_CONTEXT(
'Core Data for Automotive Mechanical Design Process');
#403=PRODUCT_CONTEXT('part definition',#402,'mechanical');
#404=PRODUCT('Corps Haut','Anti tartre DN20 (3.4 NPT)',$,(#403));
#405=PRESENTATION_STYLE_ASSIGNMENT((#407));
#406=PRESENTATION_STYLE_ASSIGNMENT((#408));
#407=SURFACE_STYLE_USAGE(.BOTH.,#409);
#408=SURFACE_STYLE_USAGE(.BOTH.,#410);
#409=SURFACE_SIDE_STYLE('',(#411));
#410=SURFACE_SIDE_STYLE('',(#412));
#411=SURFACE_STYLE_FILL_AREA(#413);
#412=SURFACE_STYLE_FILL_AREA(#414);
#413=FILL_AREA_STYLE('',(#415));
#414=FILL_AREA_STYLE('',(#416));
#415=FILL_AREA_STYLE_COLOUR('',#417);
#416=FILL_AREA_STYLE_COLOUR('',#418);
#417=COLOUR_RGB('',0.749019607843137,0.749019607843137,0.749019607843137);
#418=COLOUR_RGB('',0.0627450980392157,0.670588235294118,0.290196078431373);
ENDSEC;
END-ISO-10303-21;
