ISO-10303-21;
HEADER;
/* Generated by software containing ST-Developer
 * from STEP Tools, Inc. (www.steptools.com) 
 */

FILE_DESCRIPTION(
/* description */ (''),
/* implementation_level */ '2;1');

FILE_NAME(
/* name */ 
'c:\\worker\\convert-fusion-oct-2018\\tmp\\job-1\\17\\output\\files\\8
10579d7-7192-4538-804f-265a393480c9\\23e5c9f8-fe7d-4b5c-96ed-b0871f788
344.stp',
/* time_stamp */ '2018-10-17T12:07:09+00:00',
/* author */ (''),
/* organization */ (''),
/* preprocessor_version */ 'ST-DEVELOPER v17.2',
/* originating_system */ 'Autodesk Translation Framework v7.6.0.251',
/* authorisation */ '');

FILE_SCHEMA (('AUTOMOTIVE_DESIGN { 1 0 10303 214 3 1 1 }'));
ENDSEC;

DATA;
#10=MECHANICAL_DESIGN_GEOMETRIC_PRESENTATION_REPRESENTATION('',(#17),#280);
#11=SHAPE_REPRESENTATION_RELATIONSHIP('SRR','None',#290,#12);
#12=ADVANCED_BREP_SHAPE_REPRESENTATION('',(#18),#278);
#13=ITEM_DEFINED_TRANSFORMATION($,$,#160,#182);
#14=(
REPRESENTATION_RELATIONSHIP($,$,#291,#290)
REPRESENTATION_RELATIONSHIP_WITH_TRANSFORMATION(#13)
SHAPE_REPRESENTATION_RELATIONSHIP()
);
#15=CONTEXT_DEPENDENT_SHAPE_REPRESENTATION(#14,#289);
#16=NEXT_ASSEMBLY_USAGE_OCCURRENCE('stop:1','stop:1','stop:1',#293,#294,
'stop:1');
#17=STYLED_ITEM('',(#305),#18);
#18=MANIFOLD_SOLID_BREP('Body2',#146);
#19=LINE('',#245,#24);
#20=LINE('',#253,#25);
#21=LINE('',#261,#26);
#22=LINE('',#268,#27);
#23=LINE('',#272,#28);
#24=VECTOR('',#195,1.35);
#25=VECTOR('',#206,1.5);
#26=VECTOR('',#215,1.35);
#27=VECTOR('',#224,1.5);
#28=VECTOR('',#231,1.5);
#29=CYLINDRICAL_SURFACE('',#164,1.35);
#30=CYLINDRICAL_SURFACE('',#168,1.5);
#31=CYLINDRICAL_SURFACE('',#173,1.35);
#32=CYLINDRICAL_SURFACE('',#177,1.5);
#33=CYLINDRICAL_SURFACE('',#180,1.5);
#34=FACE_BOUND('',#50,.T.);
#35=FACE_BOUND('',#53,.T.);
#36=FACE_BOUND('',#56,.T.);
#37=FACE_BOUND('',#59,.T.);
#38=FACE_OUTER_BOUND('',#49,.T.);
#39=FACE_OUTER_BOUND('',#51,.T.);
#40=FACE_OUTER_BOUND('',#52,.T.);
#41=FACE_OUTER_BOUND('',#54,.T.);
#42=FACE_OUTER_BOUND('',#55,.T.);
#43=FACE_OUTER_BOUND('',#57,.T.);
#44=FACE_OUTER_BOUND('',#58,.T.);
#45=FACE_OUTER_BOUND('',#60,.T.);
#46=FACE_OUTER_BOUND('',#61,.T.);
#47=FACE_OUTER_BOUND('',#62,.T.);
#48=FACE_OUTER_BOUND('',#63,.T.);
#49=EDGE_LOOP('',(#99));
#50=EDGE_LOOP('',(#100));
#51=EDGE_LOOP('',(#101,#102,#103,#104));
#52=EDGE_LOOP('',(#105));
#53=EDGE_LOOP('',(#106));
#54=EDGE_LOOP('',(#107,#108,#109,#110));
#55=EDGE_LOOP('',(#111));
#56=EDGE_LOOP('',(#112));
#57=EDGE_LOOP('',(#113,#114,#115,#116));
#58=EDGE_LOOP('',(#117));
#59=EDGE_LOOP('',(#118));
#60=EDGE_LOOP('',(#119,#120,#121,#122));
#61=EDGE_LOOP('',(#123));
#62=EDGE_LOOP('',(#124,#125,#126,#127));
#63=EDGE_LOOP('',(#128));
#64=CIRCLE('',#162,1.5);
#65=CIRCLE('',#163,1.35);
#66=CIRCLE('',#165,1.35);
#67=CIRCLE('',#167,1.5);
#68=CIRCLE('',#169,1.5);
#69=CIRCLE('',#171,1.5);
#70=CIRCLE('',#172,1.35);
#71=CIRCLE('',#174,1.35);
#72=CIRCLE('',#176,1.5);
#73=CIRCLE('',#178,1.5);
#74=VERTEX_POINT('',#239);
#75=VERTEX_POINT('',#241);
#76=VERTEX_POINT('',#244);
#77=VERTEX_POINT('',#248);
#78=VERTEX_POINT('',#251);
#79=VERTEX_POINT('',#255);
#80=VERTEX_POINT('',#257);
#81=VERTEX_POINT('',#260);
#82=VERTEX_POINT('',#264);
#83=VERTEX_POINT('',#267);
#84=EDGE_CURVE('',#74,#74,#64,.T.);
#85=EDGE_CURVE('',#75,#75,#65,.T.);
#86=EDGE_CURVE('',#75,#76,#19,.T.);
#87=EDGE_CURVE('',#76,#76,#66,.T.);
#88=EDGE_CURVE('',#77,#77,#67,.T.);
#89=EDGE_CURVE('',#78,#78,#68,.T.);
#90=EDGE_CURVE('',#78,#77,#20,.T.);
#91=EDGE_CURVE('',#79,#79,#69,.T.);
#92=EDGE_CURVE('',#80,#80,#70,.T.);
#93=EDGE_CURVE('',#80,#81,#21,.T.);
#94=EDGE_CURVE('',#81,#81,#71,.T.);
#95=EDGE_CURVE('',#82,#82,#72,.T.);
#96=EDGE_CURVE('',#82,#83,#22,.T.);
#97=EDGE_CURVE('',#83,#83,#73,.T.);
#98=EDGE_CURVE('',#74,#79,#23,.T.);
#99=ORIENTED_EDGE('',*,*,#84,.F.);
#100=ORIENTED_EDGE('',*,*,#85,.T.);
#101=ORIENTED_EDGE('',*,*,#85,.F.);
#102=ORIENTED_EDGE('',*,*,#86,.T.);
#103=ORIENTED_EDGE('',*,*,#87,.T.);
#104=ORIENTED_EDGE('',*,*,#86,.F.);
#105=ORIENTED_EDGE('',*,*,#88,.F.);
#106=ORIENTED_EDGE('',*,*,#87,.F.);
#107=ORIENTED_EDGE('',*,*,#89,.F.);
#108=ORIENTED_EDGE('',*,*,#90,.T.);
#109=ORIENTED_EDGE('',*,*,#88,.T.);
#110=ORIENTED_EDGE('',*,*,#90,.F.);
#111=ORIENTED_EDGE('',*,*,#91,.F.);
#112=ORIENTED_EDGE('',*,*,#92,.T.);
#113=ORIENTED_EDGE('',*,*,#92,.F.);
#114=ORIENTED_EDGE('',*,*,#93,.T.);
#115=ORIENTED_EDGE('',*,*,#94,.T.);
#116=ORIENTED_EDGE('',*,*,#93,.F.);
#117=ORIENTED_EDGE('',*,*,#95,.F.);
#118=ORIENTED_EDGE('',*,*,#94,.F.);
#119=ORIENTED_EDGE('',*,*,#95,.T.);
#120=ORIENTED_EDGE('',*,*,#96,.T.);
#121=ORIENTED_EDGE('',*,*,#97,.F.);
#122=ORIENTED_EDGE('',*,*,#96,.F.);
#123=ORIENTED_EDGE('',*,*,#97,.T.);
#124=ORIENTED_EDGE('',*,*,#84,.T.);
#125=ORIENTED_EDGE('',*,*,#98,.T.);
#126=ORIENTED_EDGE('',*,*,#91,.T.);
#127=ORIENTED_EDGE('',*,*,#98,.F.);
#128=ORIENTED_EDGE('',*,*,#89,.T.);
#129=PLANE('',#161);
#130=PLANE('',#166);
#131=PLANE('',#170);
#132=PLANE('',#175);
#133=PLANE('',#179);
#134=PLANE('',#181);
#135=ADVANCED_FACE('',(#38,#34),#129,.T.);
#136=ADVANCED_FACE('',(#39),#29,.T.);
#137=ADVANCED_FACE('',(#40,#35),#130,.F.);
#138=ADVANCED_FACE('',(#41),#30,.T.);
#139=ADVANCED_FACE('',(#42,#36),#131,.F.);
#140=ADVANCED_FACE('',(#43),#31,.T.);
#141=ADVANCED_FACE('',(#44,#37),#132,.T.);
#142=ADVANCED_FACE('',(#45),#32,.T.);
#143=ADVANCED_FACE('',(#46),#133,.F.);
#144=ADVANCED_FACE('',(#47),#33,.T.);
#145=ADVANCED_FACE('',(#48),#134,.T.);
#146=CLOSED_SHELL('',(#135,#136,#137,#138,#139,#140,#141,#142,#143,#144,
#145));
#147=DERIVED_UNIT_ELEMENT(#149,1.);
#148=DERIVED_UNIT_ELEMENT(#282,3.);
#149=(
MASS_UNIT()
NAMED_UNIT(*)
SI_UNIT(.KILO.,.GRAM.)
);
#150=DERIVED_UNIT((#147,#148));
#151=MEASURE_REPRESENTATION_ITEM('density measure',
POSITIVE_RATIO_MEASURE(7850.),#150);
#152=PROPERTY_DEFINITION_REPRESENTATION(#157,#154);
#153=PROPERTY_DEFINITION_REPRESENTATION(#158,#155);
#154=REPRESENTATION('material name',(#156),#279);
#155=REPRESENTATION('density',(#151),#279);
#156=DESCRIPTIVE_REPRESENTATION_ITEM('Steel','Steel');
#157=PROPERTY_DEFINITION('material property','material name',#294);
#158=PROPERTY_DEFINITION('material property','density of part',#294);
#159=AXIS2_PLACEMENT_3D('placement',#236,#183,#184);
#160=AXIS2_PLACEMENT_3D('placement',#237,#185,#186);
#161=AXIS2_PLACEMENT_3D('',#238,#187,#188);
#162=AXIS2_PLACEMENT_3D('',#240,#189,#190);
#163=AXIS2_PLACEMENT_3D('',#242,#191,#192);
#164=AXIS2_PLACEMENT_3D('',#243,#193,#194);
#165=AXIS2_PLACEMENT_3D('',#246,#196,#197);
#166=AXIS2_PLACEMENT_3D('',#247,#198,#199);
#167=AXIS2_PLACEMENT_3D('',#249,#200,#201);
#168=AXIS2_PLACEMENT_3D('',#250,#202,#203);
#169=AXIS2_PLACEMENT_3D('',#252,#204,#205);
#170=AXIS2_PLACEMENT_3D('',#254,#207,#208);
#171=AXIS2_PLACEMENT_3D('',#256,#209,#210);
#172=AXIS2_PLACEMENT_3D('',#258,#211,#212);
#173=AXIS2_PLACEMENT_3D('',#259,#213,#214);
#174=AXIS2_PLACEMENT_3D('',#262,#216,#217);
#175=AXIS2_PLACEMENT_3D('',#263,#218,#219);
#176=AXIS2_PLACEMENT_3D('',#265,#220,#221);
#177=AXIS2_PLACEMENT_3D('',#266,#222,#223);
#178=AXIS2_PLACEMENT_3D('',#269,#225,#226);
#179=AXIS2_PLACEMENT_3D('',#270,#227,#228);
#180=AXIS2_PLACEMENT_3D('',#271,#229,#230);
#181=AXIS2_PLACEMENT_3D('',#273,#232,#233);
#182=AXIS2_PLACEMENT_3D('',#274,#234,#235);
#183=DIRECTION('axis',(0.,0.,1.));
#184=DIRECTION('refdir',(1.,0.,0.));
#185=DIRECTION('axis',(0.,0.,1.));
#186=DIRECTION('refdir',(1.,0.,0.));
#187=DIRECTION('center_axis',(0.,0.,1.));
#188=DIRECTION('ref_axis',(1.,0.,0.));
#189=DIRECTION('center_axis',(0.,0.,-1.));
#190=DIRECTION('ref_axis',(1.,0.,0.));
#191=DIRECTION('center_axis',(0.,0.,-1.));
#192=DIRECTION('ref_axis',(1.,0.,0.));
#193=DIRECTION('center_axis',(0.,0.,1.));
#194=DIRECTION('ref_axis',(1.,0.,0.));
#195=DIRECTION('',(0.,0.,1.));
#196=DIRECTION('center_axis',(0.,0.,-1.));
#197=DIRECTION('ref_axis',(1.,0.,0.));
#198=DIRECTION('center_axis',(0.,0.,1.));
#199=DIRECTION('ref_axis',(1.,0.,0.));
#200=DIRECTION('center_axis',(0.,0.,1.));
#201=DIRECTION('ref_axis',(1.,0.,0.));
#202=DIRECTION('center_axis',(0.,0.,1.));
#203=DIRECTION('ref_axis',(1.,0.,0.));
#204=DIRECTION('center_axis',(0.,0.,1.));
#205=DIRECTION('ref_axis',(1.,0.,0.));
#206=DIRECTION('',(0.,0.,-1.));
#207=DIRECTION('center_axis',(0.,0.,1.));
#208=DIRECTION('ref_axis',(1.,0.,0.));
#209=DIRECTION('center_axis',(0.,0.,1.));
#210=DIRECTION('ref_axis',(1.,0.,0.));
#211=DIRECTION('center_axis',(0.,0.,1.));
#212=DIRECTION('ref_axis',(1.,0.,0.));
#213=DIRECTION('center_axis',(0.,0.,-1.));
#214=DIRECTION('ref_axis',(1.,0.,0.));
#215=DIRECTION('',(0.,0.,-1.));
#216=DIRECTION('center_axis',(0.,0.,1.));
#217=DIRECTION('ref_axis',(1.,0.,0.));
#218=DIRECTION('center_axis',(0.,0.,1.));
#219=DIRECTION('ref_axis',(1.,0.,0.));
#220=DIRECTION('center_axis',(0.,0.,-1.));
#221=DIRECTION('ref_axis',(1.,0.,0.));
#222=DIRECTION('center_axis',(0.,0.,1.));
#223=DIRECTION('ref_axis',(1.,0.,0.));
#224=DIRECTION('',(0.,0.,-1.));
#225=DIRECTION('center_axis',(0.,0.,-1.));
#226=DIRECTION('ref_axis',(1.,0.,0.));
#227=DIRECTION('center_axis',(0.,0.,1.));
#228=DIRECTION('ref_axis',(1.,0.,0.));
#229=DIRECTION('center_axis',(0.,0.,1.));
#230=DIRECTION('ref_axis',(1.,0.,0.));
#231=DIRECTION('',(0.,0.,-1.));
#232=DIRECTION('center_axis',(0.,0.,1.));
#233=DIRECTION('ref_axis',(1.,0.,0.));
#234=DIRECTION('',(0.,0.,-1.));
#235=DIRECTION('',(1.,0.,0.));
#236=CARTESIAN_POINT('',(0.,0.,0.));
#237=CARTESIAN_POINT('',(0.,0.,0.));
#238=CARTESIAN_POINT('Origin',(-4.44089209850063E-15,-7.5,19.1));
#239=CARTESIAN_POINT('',(-19.5,-7.5,19.1));
#240=CARTESIAN_POINT('Origin',(-18.,-7.5,19.1));
#241=CARTESIAN_POINT('',(-19.35,-7.5,19.1));
#242=CARTESIAN_POINT('Origin',(-18.,-7.5,19.1));
#243=CARTESIAN_POINT('Origin',(-18.,-7.5,0.));
#244=CARTESIAN_POINT('',(-19.35,-7.5,19.6));
#245=CARTESIAN_POINT('',(-19.35,-7.5,0.));
#246=CARTESIAN_POINT('Origin',(-18.,-7.5,19.6));
#247=CARTESIAN_POINT('Origin',(-4.44089209850063E-15,-7.5,19.6));
#248=CARTESIAN_POINT('',(-19.5,-7.5,19.6));
#249=CARTESIAN_POINT('Origin',(-18.,-7.5,19.6));
#250=CARTESIAN_POINT('Origin',(-18.,-7.5,0.));
#251=CARTESIAN_POINT('',(-19.5,-7.5,58.));
#252=CARTESIAN_POINT('Origin',(-18.,-7.5,58.));
#253=CARTESIAN_POINT('',(-19.5,-7.5,0.));
#254=CARTESIAN_POINT('Origin',(-4.44089209850063E-15,-7.5,-16.7));
#255=CARTESIAN_POINT('',(-19.5,-7.5,-16.7));
#256=CARTESIAN_POINT('Origin',(-18.,-7.5,-16.7));
#257=CARTESIAN_POINT('',(-19.35,-7.5,-16.7));
#258=CARTESIAN_POINT('Origin',(-18.,-7.5,-16.7));
#259=CARTESIAN_POINT('Origin',(-18.,-7.5,0.));
#260=CARTESIAN_POINT('',(-19.35,-7.5,-17.2));
#261=CARTESIAN_POINT('',(-19.35,-7.5,0.));
#262=CARTESIAN_POINT('Origin',(-18.,-7.5,-17.2));
#263=CARTESIAN_POINT('Origin',(-4.44089209850063E-15,-7.5,-17.2));
#264=CARTESIAN_POINT('',(-19.5,-7.5,-17.2));
#265=CARTESIAN_POINT('Origin',(-18.,-7.5,-17.2));
#266=CARTESIAN_POINT('Origin',(-18.,-7.5,0.));
#267=CARTESIAN_POINT('',(-19.5,-7.5,-20.));
#268=CARTESIAN_POINT('',(-19.5,-7.5,0.));
#269=CARTESIAN_POINT('Origin',(-18.,-7.5,-20.));
#270=CARTESIAN_POINT('Origin',(-18.,-7.5,-20.));
#271=CARTESIAN_POINT('Origin',(-18.,-7.5,0.));
#272=CARTESIAN_POINT('',(-19.5,-7.5,0.));
#273=CARTESIAN_POINT('Origin',(-18.,-7.5,58.));
#274=CARTESIAN_POINT('',(-18.,-15.,59.));
#275=UNCERTAINTY_MEASURE_WITH_UNIT(LENGTH_MEASURE(0.01),#281,
'DISTANCE_ACCURACY_VALUE',
'Maximum model space distance between geometric entities at asserted c
onnectivities');
#276=UNCERTAINTY_MEASURE_WITH_UNIT(LENGTH_MEASURE(0.01),#281,
'DISTANCE_ACCURACY_VALUE',
'Maximum model space distance between geometric entities at asserted c
onnectivities');
#277=UNCERTAINTY_MEASURE_WITH_UNIT(LENGTH_MEASURE(0.01),#281,
'DISTANCE_ACCURACY_VALUE',
'Maximum model space distance between geometric entities at asserted c
onnectivities');
#278=(
GEOMETRIC_REPRESENTATION_CONTEXT(3)
GLOBAL_UNCERTAINTY_ASSIGNED_CONTEXT((#275))
GLOBAL_UNIT_ASSIGNED_CONTEXT((#281,#283,#284))
REPRESENTATION_CONTEXT('','3D')
);
#279=(
GEOMETRIC_REPRESENTATION_CONTEXT(3)
GLOBAL_UNCERTAINTY_ASSIGNED_CONTEXT((#276))
GLOBAL_UNIT_ASSIGNED_CONTEXT((#281,#283,#284))
REPRESENTATION_CONTEXT('','3D')
);
#280=(
GEOMETRIC_REPRESENTATION_CONTEXT(3)
GLOBAL_UNCERTAINTY_ASSIGNED_CONTEXT((#277))
GLOBAL_UNIT_ASSIGNED_CONTEXT((#281,#283,#284))
REPRESENTATION_CONTEXT('','3D')
);
#281=(
LENGTH_UNIT()
NAMED_UNIT(*)
SI_UNIT(.MILLI.,.METRE.)
);
#282=(
LENGTH_UNIT()
NAMED_UNIT(*)
SI_UNIT($,.METRE.)
);
#283=(
NAMED_UNIT(*)
PLANE_ANGLE_UNIT()
SI_UNIT($,.RADIAN.)
);
#284=(
NAMED_UNIT(*)
SI_UNIT($,.STERADIAN.)
SOLID_ANGLE_UNIT()
);
#285=SHAPE_DEFINITION_REPRESENTATION(#287,#290);
#286=SHAPE_DEFINITION_REPRESENTATION(#288,#291);
#287=PRODUCT_DEFINITION_SHAPE('',$,#293);
#288=PRODUCT_DEFINITION_SHAPE('',$,#294);
#289=PRODUCT_DEFINITION_SHAPE($,$,#16);
#290=SHAPE_REPRESENTATION('',(#159,#182),#278);
#291=SHAPE_REPRESENTATION('',(#160),#279);
#292=PRODUCT_DEFINITION_CONTEXT('part definition',#300,'design');
#293=PRODUCT_DEFINITION('axes','axes v2',#295,#292);
#294=PRODUCT_DEFINITION('stop','stop',#296,#292);
#295=PRODUCT_DEFINITION_FORMATION('',$,#302);
#296=PRODUCT_DEFINITION_FORMATION('',$,#303);
#297=PRODUCT_RELATED_PRODUCT_CATEGORY('axes v2','axes v2',(#302));
#298=PRODUCT_RELATED_PRODUCT_CATEGORY('stop','stop',(#303));
#299=APPLICATION_PROTOCOL_DEFINITION('international standard',
'automotive_design',2009,#300);
#300=APPLICATION_CONTEXT(
'Core Data for Automotive Mechanical Design Process');
#301=PRODUCT_CONTEXT('part definition',#300,'mechanical');
#302=PRODUCT('axes','axes v2',$,(#301));
#303=PRODUCT('stop','stop',$,(#301));
#304=PRESENTATION_STYLE_ASSIGNMENT((#306));
#305=PRESENTATION_STYLE_ASSIGNMENT((#307));
#306=SURFACE_STYLE_USAGE(.BOTH.,#308);
#307=SURFACE_STYLE_USAGE(.BOTH.,#309);
#308=SURFACE_SIDE_STYLE('',(#310));
#309=SURFACE_SIDE_STYLE('',(#311));
#310=SURFACE_STYLE_FILL_AREA(#312);
#311=SURFACE_STYLE_FILL_AREA(#313);
#312=FILL_AREA_STYLE('Steel - Satin',(#314));
#313=FILL_AREA_STYLE('Silver - Polished',(#315));
#314=FILL_AREA_STYLE_COLOUR('Steel - Satin',#316);
#315=FILL_AREA_STYLE_COLOUR('Silver - Polished',#317);
#316=COLOUR_RGB('Steel - Satin',0.627450980392157,0.627450980392157,0.627450980392157);
#317=COLOUR_RGB('Silver - Polished',0.984313725490196,0.980392156862745,
0.96078431372549);
ENDSEC;
END-ISO-10303-21;
