ISO-10303-21;
HEADER;
FILE_DESCRIPTION(('STEP AP214'),'1');
FILE_NAME('Rondelle 190100 lg47.stp','2018-11-13T08:16:13',(' '),(' '),'Spatial InterOp 3D',' ',' ');
FILE_SCHEMA(('AUTOMOTIVE_DESIGN { 1 0 10303 214 1 1 1 1 }'));
ENDSEC;
DATA;
#1=MECHANICAL_DESIGN_GEOMETRIC_PRESENTATION_REPRESENTATION(' ',(#10,#11,#12,#13),#6);
#2=PRODUCT_DEFINITION_CONTEXT('',#14,'design');
#3=APPLICATION_PROTOCOL_DEFINITION('INTERNATIONAL STANDARD','automotive_design',1994,#14);
#4=PRODUCT_CATEGORY_RELATIONSHIP('NONE','NONE',#15,#16);
#5=SHAPE_DEFINITION_REPRESENTATION(#17,#18);
#6= (GEOMETRIC_REPRESENTATION_CONTEXT(3)GLOBAL_UNCERTAINTY_ASSIGNED_CONTEXT((#21))GLOBAL_UNIT_ASSIGNED_CONTEXT((#23,#24,#25))REPRESENTATION_CONTEXT('NONE','WORKSPACE'));
#10=STYLED_ITEM('',(#27),#28);
#11=STYLED_ITEM('',(#29),#30);
#12=STYLED_ITEM('',(#31),#32);
#13=STYLED_ITEM('',(#33),#34);
#14=APPLICATION_CONTEXT(' ');
#15=PRODUCT_CATEGORY('part','NONE');
#16=PRODUCT_RELATED_PRODUCT_CATEGORY('detail',' ',(#35));
#17=PRODUCT_DEFINITION_SHAPE('NONE','NONE',#36);
#18=ADVANCED_BREP_SHAPE_REPRESENTATION('Rondelle 190*100 lg47',(#37,#38),#6);
#21=UNCERTAINTY_MEASURE_WITH_UNIT(LENGTH_MEASURE(0.001),#23,'','');
#23= (CONVERSION_BASED_UNIT('MILLIMETRE',#41)LENGTH_UNIT()NAMED_UNIT(#44));
#24= (NAMED_UNIT(#46)PLANE_ANGLE_UNIT()SI_UNIT($,.RADIAN.));
#25= (NAMED_UNIT(#46)SOLID_ANGLE_UNIT()SI_UNIT($,.STERADIAN.));
#27=PRESENTATION_STYLE_ASSIGNMENT((#52));
#28=ADVANCED_FACE('',(#53,#54),#55,.F.);
#29=PRESENTATION_STYLE_ASSIGNMENT((#56));
#30=ADVANCED_FACE('',(#57,#58),#59,.T.);
#31=PRESENTATION_STYLE_ASSIGNMENT((#60));
#32=ADVANCED_FACE('',(#61,#62),#63,.T.);
#33=PRESENTATION_STYLE_ASSIGNMENT((#64));
#34=ADVANCED_FACE('',(#65,#66),#67,.F.);
#35=PRODUCT('Rondelle 190*100 lg47','Rondelle 190*100 lg47','PART-Rondelle 190*100 lg47-DESC',(#68));
#36=PRODUCT_DEFINITION('','NONE',#69,#2);
#37=MANIFOLD_SOLID_BREP('Rondelle 190*100 lg47',#70);
#38=AXIS2_PLACEMENT_3D('',#71,#72,#73);
#41=LENGTH_MEASURE_WITH_UNIT(LENGTH_MEASURE(1.0),#74);
#44=DIMENSIONAL_EXPONENTS(1.0,0.0,0.0,0.0,0.0,0.0,0.0);
#46=DIMENSIONAL_EXPONENTS(0.0,0.0,0.0,0.0,0.0,0.0,0.0);
#52=SURFACE_STYLE_USAGE(.BOTH.,#75);
#53=FACE_BOUND('',#76,.T.);
#54=FACE_OUTER_BOUND('',#77,.T.);
#55=PLANE('',#78);
#56=SURFACE_STYLE_USAGE(.BOTH.,#79);
#57=FACE_BOUND('',#80,.T.);
#58=FACE_OUTER_BOUND('',#81,.T.);
#59=PLANE('',#82);
#60=SURFACE_STYLE_USAGE(.BOTH.,#83);
#61=FACE_OUTER_BOUND('',#84,.T.);
#62=FACE_OUTER_BOUND('',#85,.T.);
#63=CYLINDRICAL_SURFACE('',#86,95.0);
#64=SURFACE_STYLE_USAGE(.BOTH.,#87);
#65=FACE_OUTER_BOUND('',#88,.T.);
#66=FACE_OUTER_BOUND('',#89,.T.);
#67=CYLINDRICAL_SURFACE('',#90,50.0);
#68=PRODUCT_CONTEXT('',#14,'mechanical');
#69=PRODUCT_DEFINITION_FORMATION_WITH_SPECIFIED_SOURCE(' ','NONE',#35,.NOT_KNOWN.);
#70=CLOSED_SHELL('',(#28,#30,#32,#34));
#71=CARTESIAN_POINT('',(0.0,0.0,0.0));
#72=DIRECTION('',(0.0,0.0,1.0));
#73=DIRECTION('',(1.0,0.0,0.0));
#74= (NAMED_UNIT(#44)LENGTH_UNIT()SI_UNIT(.MILLI.,.METRE.));
#75=SURFACE_SIDE_STYLE('',(#92));
#76=EDGE_LOOP('',(#93));
#77=EDGE_LOOP('',(#94));
#78=AXIS2_PLACEMENT_3D('',#95,#96,#97);
#79=SURFACE_SIDE_STYLE('',(#98));
#80=EDGE_LOOP('',(#99));
#81=EDGE_LOOP('',(#100));
#82=AXIS2_PLACEMENT_3D('',#101,#102,#103);
#83=SURFACE_SIDE_STYLE('',(#104));
#84=EDGE_LOOP('',(#105));
#85=EDGE_LOOP('',(#106));
#86=AXIS2_PLACEMENT_3D('',#107,#108,#109);
#87=SURFACE_SIDE_STYLE('',(#110));
#88=EDGE_LOOP('',(#111));
#89=EDGE_LOOP('',(#112));
#90=AXIS2_PLACEMENT_3D('',#113,#114,#115);
#92=SURFACE_STYLE_FILL_AREA(#116);
#93=ORIENTED_EDGE('',*,*,#117,.F.);
#94=ORIENTED_EDGE('',*,*,#118,.F.);
#95=CARTESIAN_POINT('',(0.0,0.0,0.0));
#96=DIRECTION('',(0.0,0.0,1.0));
#97=DIRECTION('',(1.0,0.0,0.0));
#98=SURFACE_STYLE_FILL_AREA(#119);
#99=ORIENTED_EDGE('',*,*,#120,.F.);
#100=ORIENTED_EDGE('',*,*,#121,.T.);
#101=CARTESIAN_POINT('',(0.0,0.0,47.0));
#102=DIRECTION('',(0.0,0.0,1.0));
#103=DIRECTION('',(1.0,0.0,0.0));
#104=SURFACE_STYLE_FILL_AREA(#122);
#105=ORIENTED_EDGE('',*,*,#118,.T.);
#106=ORIENTED_EDGE('',*,*,#121,.F.);
#107=CARTESIAN_POINT('',(0.0,0.0,0.0));
#108=DIRECTION('',(0.0,0.0,1.0));
#109=DIRECTION('',(1.0,0.0,0.0));
#110=SURFACE_STYLE_FILL_AREA(#123);
#111=ORIENTED_EDGE('',*,*,#120,.T.);
#112=ORIENTED_EDGE('',*,*,#117,.T.);
#113=CARTESIAN_POINT('',(0.0,0.0,47.0));
#114=DIRECTION('',(0.0,0.0,-1.0));
#115=DIRECTION('',(1.0,0.0,0.0));
#116=FILL_AREA_STYLE('',(#124));
#117=EDGE_CURVE('',#125,#125,#126,.F.);
#118=EDGE_CURVE('',#127,#127,#128,.T.);
#119=FILL_AREA_STYLE('',(#129));
#120=EDGE_CURVE('',#130,#130,#131,.T.);
#121=EDGE_CURVE('',#132,#132,#133,.T.);
#122=FILL_AREA_STYLE('',(#134));
#123=FILL_AREA_STYLE('',(#135));
#124=FILL_AREA_STYLE_COLOUR('',#136);
#125=VERTEX_POINT('',#137);
#126=CIRCLE('',#138,50.0);
#127=VERTEX_POINT('',#139);
#128=CIRCLE('',#140,95.0);
#129=FILL_AREA_STYLE_COLOUR('',#141);
#130=VERTEX_POINT('',#142);
#131=CIRCLE('',#143,50.0);
#132=VERTEX_POINT('',#144);
#133=CIRCLE('',#145,95.0);
#134=FILL_AREA_STYLE_COLOUR('',#146);
#135=FILL_AREA_STYLE_COLOUR('',#147);
#136=COLOUR_RGB('',0.752941191196442,0.752941191196442,0.752941191196442);
#137=CARTESIAN_POINT('',(50.0,-1.22464679914735E-014,0.0));
#138=AXIS2_PLACEMENT_3D('',#148,#149,#150);
#139=CARTESIAN_POINT('',(95.0,0.0,0.0));
#140=AXIS2_PLACEMENT_3D('',#151,#152,#153);
#141=COLOUR_RGB('',0.752941191196442,0.752941191196442,0.752941191196442);
#142=CARTESIAN_POINT('',(50.0,0.0,47.0));
#143=AXIS2_PLACEMENT_3D('',#154,#155,#156);
#144=CARTESIAN_POINT('',(95.0,0.0,47.0));
#145=AXIS2_PLACEMENT_3D('',#157,#158,#159);
#146=COLOUR_RGB('',0.752941191196442,0.752941191196442,0.752941191196442);
#147=COLOUR_RGB('',0.752941191196442,0.752941191196442,0.752941191196442);
#148=CARTESIAN_POINT('',(0.0,0.0,0.0));
#149=DIRECTION('',(0.0,0.0,1.0));
#150=DIRECTION('',(1.0,0.0,0.0));
#151=CARTESIAN_POINT('',(0.0,0.0,0.0));
#152=DIRECTION('',(0.0,0.0,1.0));
#153=DIRECTION('',(1.0,0.0,0.0));
#154=CARTESIAN_POINT('',(0.0,0.0,47.0));
#155=DIRECTION('',(0.0,0.0,1.0));
#156=DIRECTION('',(1.0,0.0,0.0));
#157=CARTESIAN_POINT('',(0.0,0.0,47.0));
#158=DIRECTION('',(0.0,0.0,1.0));
#159=DIRECTION('',(1.0,0.0,0.0));
ENDSEC;
END-ISO-10303-21;
