ISO-10303-21;
HEADER;
FILE_DESCRIPTION(('STEP AP214'),'1');
FILE_NAME('e.stp','2018-11-13T09:05:07',(' '),(' '),'Spatial InterOp 3D',' ',' ');
FILE_SCHEMA(('AUTOMOTIVE_DESIGN { 1 0 10303 214 1 1 1 1 }'));
ENDSEC;
DATA;
#1=PRODUCT_DEFINITION_CONTEXT('',#28,'design');
#2=APPLICATION_PROTOCOL_DEFINITION('INTERNATIONAL STANDARD','automotive_design',1994,#28);
#3=PRODUCT_CATEGORY_RELATIONSHIP('NONE','NONE',#29,#30);
#4=SHAPE_DEFINITION_REPRESENTATION(#31,#32);
#5=PRODUCT_DEFINITION_CONTEXT('',#33,'design');
#6=APPLICATION_PROTOCOL_DEFINITION('INTERNATIONAL STANDARD','automotive_design',1994,#33);
#7=PRODUCT_CATEGORY_RELATIONSHIP('NONE','NONE',#34,#35);
#8=CONTEXT_DEPENDENT_SHAPE_REPRESENTATION(#36,#37);
#9=SHAPE_DEFINITION_REPRESENTATION(#38,#39);
#10=SHAPE_REPRESENTATION_RELATIONSHIP('NONE','NONE',#39,#40);
#11=PRODUCT_DEFINITION_CONTEXT('',#41,'design');
#12=APPLICATION_PROTOCOL_DEFINITION('INTERNATIONAL STANDARD','automotive_design',1994,#41);
#13=PRODUCT_CATEGORY_RELATIONSHIP('NONE','NONE',#42,#43);
#14=CONTEXT_DEPENDENT_SHAPE_REPRESENTATION(#44,#45);
#15=SHAPE_DEFINITION_REPRESENTATION(#46,#47);
#16=SHAPE_REPRESENTATION_RELATIONSHIP('NONE','NONE',#47,#48);
#17=PRODUCT_DEFINITION_CONTEXT('',#49,'design');
#18=APPLICATION_PROTOCOL_DEFINITION('INTERNATIONAL STANDARD','automotive_design',1994,#49);
#19=PRODUCT_CATEGORY_RELATIONSHIP('NONE','NONE',#50,#51);
#20=CONTEXT_DEPENDENT_SHAPE_REPRESENTATION(#52,#53);
#21=SHAPE_DEFINITION_REPRESENTATION(#54,#55);
#22=SHAPE_REPRESENTATION_RELATIONSHIP('NONE','NONE',#55,#56);
#23=MECHANICAL_DESIGN_GEOMETRIC_PRESENTATION_REPRESENTATION(' ',(#57,#58,#59,#60,#61,#62,#63,#64,#65,#66,#67,#68),#24);
#24= (GEOMETRIC_REPRESENTATION_CONTEXT(3)GLOBAL_UNCERTAINTY_ASSIGNED_CONTEXT((#71))GLOBAL_UNIT_ASSIGNED_CONTEXT((#73,#74,#75))REPRESENTATION_CONTEXT('NONE','WORKSPACE'));
#28=APPLICATION_CONTEXT(' ');
#29=PRODUCT_CATEGORY('part','NONE');
#30=PRODUCT_RELATED_PRODUCT_CATEGORY('detail',' ',(#77));
#31=PRODUCT_DEFINITION_SHAPE('NONE','NONE',#78);
#32=SHAPE_REPRESENTATION('Ensemble m\X2\00E9\X0\cano soud\X2\00E9\X0\e$',(#79,#80,#81,#82),#83);
#33=APPLICATION_CONTEXT(' ');
#34=PRODUCT_CATEGORY('part','NONE');
#35=PRODUCT_RELATED_PRODUCT_CATEGORY('detail',' ',(#84));
#36=(REPRESENTATION_RELATIONSHIP('','',#39,#32)REPRESENTATION_RELATIONSHIP_WITH_TRANSFORMATION(#87)SHAPE_REPRESENTATION_RELATIONSHIP());
#37=PRODUCT_DEFINITION_SHAPE('NAUO-PROD-DEF','NAUO-PROD-DEF',#89);
#38=PRODUCT_DEFINITION_SHAPE('NONE','NONE',#90);
#39=SHAPE_REPRESENTATION('Rondelle 190*100lg32',(#79),#83);
#40=ADVANCED_BREP_SHAPE_REPRESENTATION('Rondelle 190*100lg32',(#91),#24);
#41=APPLICATION_CONTEXT(' ');
#42=PRODUCT_CATEGORY('part','NONE');
#43=PRODUCT_RELATED_PRODUCT_CATEGORY('detail',' ',(#92));
#44=(REPRESENTATION_RELATIONSHIP('','',#47,#32)REPRESENTATION_RELATIONSHIP_WITH_TRANSFORMATION(#95)SHAPE_REPRESENTATION_RELATIONSHIP());
#45=PRODUCT_DEFINITION_SHAPE('NAUO-PROD-DEF','NAUO-PROD-DEF',#97);
#46=PRODUCT_DEFINITION_SHAPE('NONE','NONE',#98);
#47=SHAPE_REPRESENTATION('Rondelle 190*100 lg47',(#79),#83);
#48=ADVANCED_BREP_SHAPE_REPRESENTATION('Rondelle 190*100 lg47',(#99),#24);
#49=APPLICATION_CONTEXT(' ');
#50=PRODUCT_CATEGORY('part','NONE');
#51=PRODUCT_RELATED_PRODUCT_CATEGORY('detail',' ',(#100));
#52=(REPRESENTATION_RELATIONSHIP('','',#55,#32)REPRESENTATION_RELATIONSHIP_WITH_TRANSFORMATION(#103)SHAPE_REPRESENTATION_RELATIONSHIP());
#53=PRODUCT_DEFINITION_SHAPE('NAUO-PROD-DEF','NAUO-PROD-DEF',#105);
#54=PRODUCT_DEFINITION_SHAPE('NONE','NONE',#106);
#55=SHAPE_REPRESENTATION('Tube 140*100lg75',(#79),#83);
#56=ADVANCED_BREP_SHAPE_REPRESENTATION('Tube 140*100lg75',(#107),#24);
#57=STYLED_ITEM('',(#108),#109);
#58=STYLED_ITEM('',(#110),#111);
#59=STYLED_ITEM('',(#112),#113);
#60=STYLED_ITEM('',(#114),#115);
#61=STYLED_ITEM('',(#116),#117);
#62=STYLED_ITEM('',(#118),#119);
#63=STYLED_ITEM('',(#120),#121);
#64=STYLED_ITEM('',(#122),#123);
#65=STYLED_ITEM('',(#124),#125);
#66=STYLED_ITEM('',(#126),#127);
#67=STYLED_ITEM('',(#128),#129);
#68=STYLED_ITEM('',(#130),#131);
#71=UNCERTAINTY_MEASURE_WITH_UNIT(LENGTH_MEASURE(0.001),#73,'','');
#73= (CONVERSION_BASED_UNIT('MILLIMETRE',#134)LENGTH_UNIT()NAMED_UNIT(#137));
#74= (NAMED_UNIT(#139)PLANE_ANGLE_UNIT()SI_UNIT($,.RADIAN.));
#75= (NAMED_UNIT(#139)SOLID_ANGLE_UNIT()SI_UNIT($,.STERADIAN.));
#77=PRODUCT('Ensemble m\X2\00E9\X0\cano soud\X2\00E9\X0\e$','Ensemble m\X2\00E9\X0\cano soud\X2\00E9\X0\e$','PART--DESC',(#145));
#78=PRODUCT_DEFINITION('Ensemble m\X2\00E9\X0\cano soud\X2\00E9\X0\e$','Ensemble m\X2\00E9\X0\cano soud\X2\00E9\X0\e$',#146,#1);
#79=AXIS2_PLACEMENT_3D('',#147,#148,#149);
#80=AXIS2_PLACEMENT_3D('',#150,#151,#152);
#81=AXIS2_PLACEMENT_3D('',#153,#154,#155);
#82=AXIS2_PLACEMENT_3D('',#156,#157,#158);
#83= (GEOMETRIC_REPRESENTATION_CONTEXT(3)GLOBAL_UNCERTAINTY_ASSIGNED_CONTEXT((#161))GLOBAL_UNIT_ASSIGNED_CONTEXT((#163,#164,#165))REPRESENTATION_CONTEXT('NONE','WORKSPACE'));
#84=PRODUCT('Rondelle 190*100lg32','Rondelle 190*100lg32','PART-Rondelle 190*100lg32-DESC',(#167));
#87=ITEM_DEFINED_TRANSFORMATION('','',#79,#80);
#89=NEXT_ASSEMBLY_USAGE_OCCURRENCE('Rondelle 190*100lg32 <154>','Rondelle 190*100lg32 <154>','Rondelle 190*100lg32 <154>',#78,#90,$);
#90=PRODUCT_DEFINITION('Rondelle 190*100lg32','Rondelle 190*100lg32',#168,#5);
#91=MANIFOLD_SOLID_BREP('Rondelle 190*100lg32',#169);
#92=PRODUCT('Rondelle 190*100 lg47','Rondelle 190*100 lg47','PART--DESC',(#170));
#95=ITEM_DEFINED_TRANSFORMATION('','',#79,#81);
#97=NEXT_ASSEMBLY_USAGE_OCCURRENCE('Rondelle 190*100 lg47 <136>','Rondelle 190*100 lg47 <136>','Rondelle 190*100 lg47 <136>',#78,#98,$);
#98=PRODUCT_DEFINITION('Rondelle 190*100 lg47','Rondelle 190*100 lg47',#171,#11);
#99=MANIFOLD_SOLID_BREP('Rondelle 190*100 lg47',#172);
#100=PRODUCT('Tube 140*100lg75','Tube 140*100lg75','PART--DESC',(#173));
#103=ITEM_DEFINED_TRANSFORMATION('','',#79,#82);
#105=NEXT_ASSEMBLY_USAGE_OCCURRENCE('Tube 140*100lg75 <126>','Tube 140*100lg75 <126>','Tube 140*100lg75 <126>',#78,#106,$);
#106=PRODUCT_DEFINITION('Tube 140*100lg75','Tube 140*100lg75',#174,#17);
#107=MANIFOLD_SOLID_BREP('Tube 140*100lg75',#175);
#108=PRESENTATION_STYLE_ASSIGNMENT((#176));
#109=ADVANCED_FACE('',(#177,#178),#179,.T.);
#110=PRESENTATION_STYLE_ASSIGNMENT((#180));
#111=ADVANCED_FACE('',(#181,#182),#183,.F.);
#112=PRESENTATION_STYLE_ASSIGNMENT((#184));
#113=ADVANCED_FACE('',(#185,#186),#187,.F.);
#114=PRESENTATION_STYLE_ASSIGNMENT((#188));
#115=ADVANCED_FACE('',(#189,#190),#191,.T.);
#116=PRESENTATION_STYLE_ASSIGNMENT((#192));
#117=ADVANCED_FACE('',(#193,#194),#195,.F.);
#118=PRESENTATION_STYLE_ASSIGNMENT((#196));
#119=ADVANCED_FACE('',(#197,#198),#199,.T.);
#120=PRESENTATION_STYLE_ASSIGNMENT((#200));
#121=ADVANCED_FACE('',(#201,#202),#203,.T.);
#122=PRESENTATION_STYLE_ASSIGNMENT((#204));
#123=ADVANCED_FACE('',(#205,#206),#207,.F.);
#124=PRESENTATION_STYLE_ASSIGNMENT((#208));
#125=ADVANCED_FACE('',(#209,#210),#211,.T.);
#126=PRESENTATION_STYLE_ASSIGNMENT((#212));
#127=ADVANCED_FACE('',(#213,#214),#215,.F.);
#128=PRESENTATION_STYLE_ASSIGNMENT((#216));
#129=ADVANCED_FACE('',(#217,#218),#219,.F.);
#130=PRESENTATION_STYLE_ASSIGNMENT((#220));
#131=ADVANCED_FACE('',(#221,#222),#223,.T.);
#134=LENGTH_MEASURE_WITH_UNIT(LENGTH_MEASURE(1.0),#224);
#137=DIMENSIONAL_EXPONENTS(1.0,0.0,0.0,0.0,0.0,0.0,0.0);
#139=DIMENSIONAL_EXPONENTS(0.0,0.0,0.0,0.0,0.0,0.0,0.0);
#145=PRODUCT_CONTEXT('',#28,'mechanical');
#146=PRODUCT_DEFINITION_FORMATION_WITH_SPECIFIED_SOURCE(' ','NONE',#77,.NOT_KNOWN.);
#147=CARTESIAN_POINT('',(0.0,0.0,0.0));
#148=DIRECTION('',(0.0,0.0,1.0));
#149=DIRECTION('',(1.0,0.0,0.0));
#150=CARTESIAN_POINT('',(-1.93364156343753E-083,-9.62964972193618E-032,-32.0));
#151=DIRECTION('',(1.20852597714845E-084,-4.38106570201315E-085,1.0));
#152=DIRECTION('',(0.994501186410834,-0.104725308438044,-1.24776136377552E-084));
#153=CARTESIAN_POINT('',(3.38865461614658E-067,1.55290923941246E-065,75.0));
#154=DIRECTION('',(-1.44198068772196E-068,-6.60812442303175E-067,1.0));
#155=DIRECTION('',(-0.845562984766886,0.533875677280877,3.40598835247374E-067));
#156=CARTESIAN_POINT('',(0.0,0.0,0.0));
#157=DIRECTION('',(0.0,0.0,1.0));
#158=DIRECTION('',(1.0,0.0,0.0));
#161=UNCERTAINTY_MEASURE_WITH_UNIT(LENGTH_MEASURE(0.001),#163,'','');
#163= (CONVERSION_BASED_UNIT('MILLIMETRE',#227)LENGTH_UNIT()NAMED_UNIT(#230));
#164= (NAMED_UNIT(#232)PLANE_ANGLE_UNIT()SI_UNIT($,.RADIAN.));
#165= (NAMED_UNIT(#232)SOLID_ANGLE_UNIT()SI_UNIT($,.STERADIAN.));
#167=PRODUCT_CONTEXT('',#33,'mechanical');
#168=PRODUCT_DEFINITION_FORMATION_WITH_SPECIFIED_SOURCE(' ','NONE',#84,.NOT_KNOWN.);
#169=CLOSED_SHELL('',(#109,#111,#113,#115));
#170=PRODUCT_CONTEXT('',#41,'mechanical');
#171=PRODUCT_DEFINITION_FORMATION_WITH_SPECIFIED_SOURCE(' ','NONE',#92,.NOT_KNOWN.);
#172=CLOSED_SHELL('',(#117,#119,#121,#123));
#173=PRODUCT_CONTEXT('',#49,'mechanical');
#174=PRODUCT_DEFINITION_FORMATION_WITH_SPECIFIED_SOURCE(' ','NONE',#100,.NOT_KNOWN.);
#175=CLOSED_SHELL('',(#125,#127,#129,#131));
#176=SURFACE_STYLE_USAGE(.BOTH.,#238);
#177=FACE_OUTER_BOUND('',#239,.T.);
#178=FACE_OUTER_BOUND('',#240,.T.);
#179=CYLINDRICAL_SURFACE('',#241,95.0);
#180=SURFACE_STYLE_USAGE(.BOTH.,#242);
#181=FACE_BOUND('',#243,.T.);
#182=FACE_OUTER_BOUND('',#244,.T.);
#183=PLANE('',#245);
#184=SURFACE_STYLE_USAGE(.BOTH.,#246);
#185=FACE_OUTER_BOUND('',#247,.T.);
#186=FACE_OUTER_BOUND('',#248,.T.);
#187=CYLINDRICAL_SURFACE('',#249,50.0);
#188=SURFACE_STYLE_USAGE(.BOTH.,#250);
#189=FACE_BOUND('',#251,.T.);
#190=FACE_OUTER_BOUND('',#252,.T.);
#191=PLANE('',#253);
#192=SURFACE_STYLE_USAGE(.BOTH.,#254);
#193=FACE_BOUND('',#255,.T.);
#194=FACE_OUTER_BOUND('',#256,.T.);
#195=PLANE('',#257);
#196=SURFACE_STYLE_USAGE(.BOTH.,#258);
#197=FACE_BOUND('',#259,.T.);
#198=FACE_OUTER_BOUND('',#260,.T.);
#199=PLANE('',#261);
#200=SURFACE_STYLE_USAGE(.BOTH.,#262);
#201=FACE_OUTER_BOUND('',#263,.T.);
#202=FACE_OUTER_BOUND('',#264,.T.);
#203=CYLINDRICAL_SURFACE('',#265,95.0);
#204=SURFACE_STYLE_USAGE(.BOTH.,#266);
#205=FACE_OUTER_BOUND('',#267,.T.);
#206=FACE_OUTER_BOUND('',#268,.T.);
#207=CYLINDRICAL_SURFACE('',#269,50.0);
#208=SURFACE_STYLE_USAGE(.BOTH.,#270);
#209=FACE_OUTER_BOUND('',#271,.T.);
#210=FACE_OUTER_BOUND('',#272,.T.);
#211=CYLINDRICAL_SURFACE('',#273,70.0);
#212=SURFACE_STYLE_USAGE(.BOTH.,#274);
#213=FACE_BOUND('',#275,.T.);
#214=FACE_OUTER_BOUND('',#276,.T.);
#215=PLANE('',#277);
#216=SURFACE_STYLE_USAGE(.BOTH.,#278);
#217=FACE_OUTER_BOUND('',#279,.T.);
#218=FACE_OUTER_BOUND('',#280,.T.);
#219=CYLINDRICAL_SURFACE('',#281,50.0);
#220=SURFACE_STYLE_USAGE(.BOTH.,#282);
#221=FACE_BOUND('',#283,.T.);
#222=FACE_OUTER_BOUND('',#284,.T.);
#223=PLANE('',#285);
#224= (NAMED_UNIT(#137)LENGTH_UNIT()SI_UNIT(.MILLI.,.METRE.));
#227=LENGTH_MEASURE_WITH_UNIT(LENGTH_MEASURE(1.0),#287);
#230=DIMENSIONAL_EXPONENTS(1.0,0.0,0.0,0.0,0.0,0.0,0.0);
#232=DIMENSIONAL_EXPONENTS(0.0,0.0,0.0,0.0,0.0,0.0,0.0);
#238=SURFACE_SIDE_STYLE('',(#288));
#239=EDGE_LOOP('',(#289));
#240=EDGE_LOOP('',(#290));
#241=AXIS2_PLACEMENT_3D('',#291,#292,#293);
#242=SURFACE_SIDE_STYLE('',(#294));
#243=EDGE_LOOP('',(#295));
#244=EDGE_LOOP('',(#296));
#245=AXIS2_PLACEMENT_3D('',#297,#298,#299);
#246=SURFACE_SIDE_STYLE('',(#300));
#247=EDGE_LOOP('',(#301));
#248=EDGE_LOOP('',(#302));
#249=AXIS2_PLACEMENT_3D('',#303,#304,#305);
#250=SURFACE_SIDE_STYLE('',(#306));
#251=EDGE_LOOP('',(#307));
#252=EDGE_LOOP('',(#308));
#253=AXIS2_PLACEMENT_3D('',#309,#310,#311);
#254=SURFACE_SIDE_STYLE('',(#312));
#255=EDGE_LOOP('',(#313));
#256=EDGE_LOOP('',(#314));
#257=AXIS2_PLACEMENT_3D('',#315,#316,#317);
#258=SURFACE_SIDE_STYLE('',(#318));
#259=EDGE_LOOP('',(#319));
#260=EDGE_LOOP('',(#320));
#261=AXIS2_PLACEMENT_3D('',#321,#322,#323);
#262=SURFACE_SIDE_STYLE('',(#324));
#263=EDGE_LOOP('',(#325));
#264=EDGE_LOOP('',(#326));
#265=AXIS2_PLACEMENT_3D('',#327,#328,#329);
#266=SURFACE_SIDE_STYLE('',(#330));
#267=EDGE_LOOP('',(#331));
#268=EDGE_LOOP('',(#332));
#269=AXIS2_PLACEMENT_3D('',#333,#334,#335);
#270=SURFACE_SIDE_STYLE('',(#336));
#271=EDGE_LOOP('',(#337));
#272=EDGE_LOOP('',(#338));
#273=AXIS2_PLACEMENT_3D('',#339,#340,#341);
#274=SURFACE_SIDE_STYLE('',(#342));
#275=EDGE_LOOP('',(#343));
#276=EDGE_LOOP('',(#344));
#277=AXIS2_PLACEMENT_3D('',#345,#346,#347);
#278=SURFACE_SIDE_STYLE('',(#348));
#279=EDGE_LOOP('',(#349));
#280=EDGE_LOOP('',(#350));
#281=AXIS2_PLACEMENT_3D('',#351,#352,#353);
#282=SURFACE_SIDE_STYLE('',(#354));
#283=EDGE_LOOP('',(#355));
#284=EDGE_LOOP('',(#356));
#285=AXIS2_PLACEMENT_3D('',#357,#358,#359);
#287= (NAMED_UNIT(#230)LENGTH_UNIT()SI_UNIT(.MILLI.,.METRE.));
#288=SURFACE_STYLE_FILL_AREA(#361);
#289=ORIENTED_EDGE('',*,*,#362,.T.);
#290=ORIENTED_EDGE('',*,*,#363,.F.);
#291=CARTESIAN_POINT('',(0.0,0.0,0.0));
#292=DIRECTION('',(0.0,0.0,1.0));
#293=DIRECTION('',(1.0,0.0,0.0));
#294=SURFACE_STYLE_FILL_AREA(#364);
#295=ORIENTED_EDGE('',*,*,#365,.T.);
#296=ORIENTED_EDGE('',*,*,#362,.F.);
#297=CARTESIAN_POINT('',(0.0,0.0,0.0));
#298=DIRECTION('',(0.0,0.0,1.0));
#299=DIRECTION('',(1.0,0.0,0.0));
#300=SURFACE_STYLE_FILL_AREA(#366);
#301=ORIENTED_EDGE('',*,*,#365,.F.);
#302=ORIENTED_EDGE('',*,*,#367,.T.);
#303=CARTESIAN_POINT('',(0.0,0.0,0.0));
#304=DIRECTION('',(0.0,0.0,1.0));
#305=DIRECTION('',(1.0,0.0,0.0));
#306=SURFACE_STYLE_FILL_AREA(#368);
#307=ORIENTED_EDGE('',*,*,#367,.F.);
#308=ORIENTED_EDGE('',*,*,#363,.T.);
#309=CARTESIAN_POINT('',(0.0,0.0,32.0));
#310=DIRECTION('',(0.0,0.0,1.0));
#311=DIRECTION('',(1.0,0.0,0.0));
#312=SURFACE_STYLE_FILL_AREA(#369);
#313=ORIENTED_EDGE('',*,*,#370,.F.);
#314=ORIENTED_EDGE('',*,*,#371,.F.);
#315=CARTESIAN_POINT('',(0.0,0.0,0.0));
#316=DIRECTION('',(0.0,0.0,1.0));
#317=DIRECTION('',(1.0,0.0,0.0));
#318=SURFACE_STYLE_FILL_AREA(#372);
#319=ORIENTED_EDGE('',*,*,#373,.F.);
#320=ORIENTED_EDGE('',*,*,#374,.T.);
#321=CARTESIAN_POINT('',(0.0,0.0,47.0));
#322=DIRECTION('',(0.0,0.0,1.0));
#323=DIRECTION('',(1.0,0.0,0.0));
#324=SURFACE_STYLE_FILL_AREA(#375);
#325=ORIENTED_EDGE('',*,*,#371,.T.);
#326=ORIENTED_EDGE('',*,*,#374,.F.);
#327=CARTESIAN_POINT('',(0.0,0.0,0.0));
#328=DIRECTION('',(0.0,0.0,1.0));
#329=DIRECTION('',(1.0,0.0,0.0));
#330=SURFACE_STYLE_FILL_AREA(#376);
#331=ORIENTED_EDGE('',*,*,#373,.T.);
#332=ORIENTED_EDGE('',*,*,#370,.T.);
#333=CARTESIAN_POINT('',(0.0,0.0,47.0));
#334=DIRECTION('',(0.0,0.0,-1.0));
#335=DIRECTION('',(1.0,0.0,0.0));
#336=SURFACE_STYLE_FILL_AREA(#377);
#337=ORIENTED_EDGE('',*,*,#378,.T.);
#338=ORIENTED_EDGE('',*,*,#379,.F.);
#339=CARTESIAN_POINT('',(0.0,0.0,0.0));
#340=DIRECTION('',(0.0,0.0,1.0));
#341=DIRECTION('',(1.0,0.0,0.0));
#342=SURFACE_STYLE_FILL_AREA(#380);
#343=ORIENTED_EDGE('',*,*,#381,.T.);
#344=ORIENTED_EDGE('',*,*,#378,.F.);
#345=CARTESIAN_POINT('',(0.0,0.0,0.0));
#346=DIRECTION('',(0.0,0.0,1.0));
#347=DIRECTION('',(1.0,0.0,0.0));
#348=SURFACE_STYLE_FILL_AREA(#382);
#349=ORIENTED_EDGE('',*,*,#381,.F.);
#350=ORIENTED_EDGE('',*,*,#383,.T.);
#351=CARTESIAN_POINT('',(0.0,0.0,0.0));
#352=DIRECTION('',(0.0,0.0,1.0));
#353=DIRECTION('',(1.0,0.0,0.0));
#354=SURFACE_STYLE_FILL_AREA(#384);
#355=ORIENTED_EDGE('',*,*,#383,.F.);
#356=ORIENTED_EDGE('',*,*,#379,.T.);
#357=CARTESIAN_POINT('',(0.0,0.0,75.0));
#358=DIRECTION('',(0.0,0.0,1.0));
#359=DIRECTION('',(1.0,0.0,0.0));
#361=FILL_AREA_STYLE('',(#385));
#362=EDGE_CURVE('',#386,#386,#387,.T.);
#363=EDGE_CURVE('',#388,#388,#389,.T.);
#364=FILL_AREA_STYLE('',(#390));
#365=EDGE_CURVE('',#391,#391,#392,.T.);
#366=FILL_AREA_STYLE('',(#393));
#367=EDGE_CURVE('',#394,#394,#395,.T.);
#368=FILL_AREA_STYLE('',(#396));
#369=FILL_AREA_STYLE('',(#397));
#370=EDGE_CURVE('',#398,#398,#399,.F.);
#371=EDGE_CURVE('',#400,#400,#401,.T.);
#372=FILL_AREA_STYLE('',(#402));
#373=EDGE_CURVE('',#403,#403,#404,.T.);
#374=EDGE_CURVE('',#405,#405,#406,.T.);
#375=FILL_AREA_STYLE('',(#407));
#376=FILL_AREA_STYLE('',(#408));
#377=FILL_AREA_STYLE('',(#409));
#378=EDGE_CURVE('',#410,#410,#411,.T.);
#379=EDGE_CURVE('',#412,#412,#413,.T.);
#380=FILL_AREA_STYLE('',(#414));
#381=EDGE_CURVE('',#415,#415,#416,.T.);
#382=FILL_AREA_STYLE('',(#417));
#383=EDGE_CURVE('',#418,#418,#419,.T.);
#384=FILL_AREA_STYLE('',(#420));
#385=FILL_AREA_STYLE_COLOUR('',#421);
#386=VERTEX_POINT('',#422);
#387=CIRCLE('',#423,95.0);
#388=VERTEX_POINT('',#424);
#389=CIRCLE('',#425,95.0);
#390=FILL_AREA_STYLE_COLOUR('',#426);
#391=VERTEX_POINT('',#427);
#392=CIRCLE('',#428,50.0);
#393=FILL_AREA_STYLE_COLOUR('',#429);
#394=VERTEX_POINT('',#430);
#395=CIRCLE('',#431,50.0);
#396=FILL_AREA_STYLE_COLOUR('',#432);
#397=FILL_AREA_STYLE_COLOUR('',#433);
#398=VERTEX_POINT('',#434);
#399=CIRCLE('',#435,50.0);
#400=VERTEX_POINT('',#436);
#401=CIRCLE('',#437,95.0);
#402=FILL_AREA_STYLE_COLOUR('',#438);
#403=VERTEX_POINT('',#439);
#404=CIRCLE('',#440,50.0);
#405=VERTEX_POINT('',#441);
#406=CIRCLE('',#442,95.0);
#407=FILL_AREA_STYLE_COLOUR('',#443);
#408=FILL_AREA_STYLE_COLOUR('',#444);
#409=FILL_AREA_STYLE_COLOUR('',#445);
#410=VERTEX_POINT('',#446);
#411=CIRCLE('',#447,70.0);
#412=VERTEX_POINT('',#448);
#413=CIRCLE('',#449,70.0);
#414=FILL_AREA_STYLE_COLOUR('',#450);
#415=VERTEX_POINT('',#451);
#416=CIRCLE('',#452,50.0);
#417=FILL_AREA_STYLE_COLOUR('',#453);
#418=VERTEX_POINT('',#454);
#419=CIRCLE('',#455,50.0);
#420=FILL_AREA_STYLE_COLOUR('',#456);
#421=COLOUR_RGB('',0.752941191196442,0.752941191196442,0.752941191196442);
#422=CARTESIAN_POINT('',(95.0,0.0,0.0));
#423=AXIS2_PLACEMENT_3D('',#457,#458,#459);
#424=CARTESIAN_POINT('',(95.0,0.0,32.0));
#425=AXIS2_PLACEMENT_3D('',#460,#461,#462);
#426=COLOUR_RGB('',0.752941191196442,0.752941191196442,0.752941191196442);
#427=CARTESIAN_POINT('',(50.0,0.0,0.0));
#428=AXIS2_PLACEMENT_3D('',#463,#464,#465);
#429=COLOUR_RGB('',0.752941191196442,0.752941191196442,0.752941191196442);
#430=CARTESIAN_POINT('',(50.0,0.0,32.0));
#431=AXIS2_PLACEMENT_3D('',#466,#467,#468);
#432=COLOUR_RGB('',0.752941191196442,0.752941191196442,0.752941191196442);
#433=COLOUR_RGB('',0.752941191196442,0.752941191196442,0.752941191196442);
#434=CARTESIAN_POINT('',(50.0,-1.22464679914735E-014,0.0));
#435=AXIS2_PLACEMENT_3D('',#469,#470,#471);
#436=CARTESIAN_POINT('',(95.0,0.0,0.0));
#437=AXIS2_PLACEMENT_3D('',#472,#473,#474);
#438=COLOUR_RGB('',0.752941191196442,0.752941191196442,0.752941191196442);
#439=CARTESIAN_POINT('',(50.0,0.0,47.0));
#440=AXIS2_PLACEMENT_3D('',#475,#476,#477);
#441=CARTESIAN_POINT('',(95.0,0.0,47.0));
#442=AXIS2_PLACEMENT_3D('',#478,#479,#480);
#443=COLOUR_RGB('',0.752941191196442,0.752941191196442,0.752941191196442);
#444=COLOUR_RGB('',0.752941191196442,0.752941191196442,0.752941191196442);
#445=COLOUR_RGB('',0.752941191196442,0.752941191196442,0.752941191196442);
#446=CARTESIAN_POINT('',(70.0,0.0,0.0));
#447=AXIS2_PLACEMENT_3D('',#481,#482,#483);
#448=CARTESIAN_POINT('',(70.0,0.0,75.0));
#449=AXIS2_PLACEMENT_3D('',#484,#485,#486);
#450=COLOUR_RGB('',0.752941191196442,0.752941191196442,0.752941191196442);
#451=CARTESIAN_POINT('',(50.0,0.0,0.0));
#452=AXIS2_PLACEMENT_3D('',#487,#488,#489);
#453=COLOUR_RGB('',0.752941191196442,0.752941191196442,0.752941191196442);
#454=CARTESIAN_POINT('',(50.0,0.0,75.0));
#455=AXIS2_PLACEMENT_3D('',#490,#491,#492);
#456=COLOUR_RGB('',0.752941191196442,0.752941191196442,0.752941191196442);
#457=CARTESIAN_POINT('',(0.0,0.0,0.0));
#458=DIRECTION('',(0.0,0.0,1.0));
#459=DIRECTION('',(1.0,0.0,0.0));
#460=CARTESIAN_POINT('',(0.0,0.0,32.0));
#461=DIRECTION('',(0.0,0.0,1.0));
#462=DIRECTION('',(1.0,0.0,0.0));
#463=CARTESIAN_POINT('',(0.0,0.0,0.0));
#464=DIRECTION('',(0.0,0.0,1.0));
#465=DIRECTION('',(1.0,0.0,0.0));
#466=CARTESIAN_POINT('',(0.0,0.0,32.0));
#467=DIRECTION('',(0.0,0.0,1.0));
#468=DIRECTION('',(1.0,0.0,0.0));
#469=CARTESIAN_POINT('',(0.0,0.0,0.0));
#470=DIRECTION('',(0.0,0.0,1.0));
#471=DIRECTION('',(1.0,0.0,0.0));
#472=CARTESIAN_POINT('',(0.0,0.0,0.0));
#473=DIRECTION('',(0.0,0.0,1.0));
#474=DIRECTION('',(1.0,0.0,0.0));
#475=CARTESIAN_POINT('',(0.0,0.0,47.0));
#476=DIRECTION('',(0.0,0.0,1.0));
#477=DIRECTION('',(1.0,0.0,0.0));
#478=CARTESIAN_POINT('',(0.0,0.0,47.0));
#479=DIRECTION('',(0.0,0.0,1.0));
#480=DIRECTION('',(1.0,0.0,0.0));
#481=CARTESIAN_POINT('',(0.0,0.0,0.0));
#482=DIRECTION('',(0.0,0.0,1.0));
#483=DIRECTION('',(1.0,0.0,0.0));
#484=CARTESIAN_POINT('',(0.0,0.0,75.0));
#485=DIRECTION('',(0.0,0.0,1.0));
#486=DIRECTION('',(1.0,0.0,0.0));
#487=CARTESIAN_POINT('',(0.0,0.0,0.0));
#488=DIRECTION('',(0.0,0.0,1.0));
#489=DIRECTION('',(1.0,0.0,0.0));
#490=CARTESIAN_POINT('',(0.0,0.0,75.0));
#491=DIRECTION('',(0.0,0.0,1.0));
#492=DIRECTION('',(1.0,0.0,0.0));
ENDSEC;
END-ISO-10303-21;
