ISO-10303-21;
HEADER;
/* Generated by software containing ST-Developer
 * from STEP Tools, Inc. (www.steptools.com) 
 */

FILE_DESCRIPTION(
/* description */ (''),
/* implementation_level */ '2;1');

FILE_NAME(
/* name */ 'D:/Mes docs/PAV/SafeStrap/Rebuilt/Boule v2.step',
/* time_stamp */ '2018-11-23T11:25:54+01:00',
/* author */ (''),
/* organization */ (''),
/* preprocessor_version */ 'ST-DEVELOPER v17.2',
/* originating_system */ 'Autodesk Translation Framework v7.6.0.251',
/* authorisation */ '');

FILE_SCHEMA (('AUTOMOTIVE_DESIGN { 1 0 10303 214 3 1 1 }'));
ENDSEC;

DATA;
#10=MECHANICAL_DESIGN_GEOMETRIC_PRESENTATION_REPRESENTATION('',(#13),#246);
#11=SHAPE_REPRESENTATION_RELATIONSHIP('SRR','None',#253,#12);
#12=ADVANCED_BREP_SHAPE_REPRESENTATION('',(#14),#245);
#13=STYLED_ITEM('',(#262),#14);
#14=MANIFOLD_SOLID_BREP('Body1',#127);
#15=SPHERICAL_SURFACE('',#159,2.5);
#16=TOROIDAL_SURFACE('',#155,2.69960131925284,0.499999999999991);
#17=CONICAL_SURFACE('',#151,3.38406078299956,1.08946515744616);
#18=FACE_BOUND('',#38,.T.);
#19=FACE_BOUND('',#43,.T.);
#20=LINE('',#213,#23);
#21=LINE('',#224,#24);
#22=LINE('',#231,#25);
#23=VECTOR('',#171,2.8);
#24=VECTOR('',#184,4.3);
#25=VECTOR('',#191,3.38406078299956);
#26=CYLINDRICAL_SURFACE('',#143,2.942);
#27=CYLINDRICAL_SURFACE('',#148,4.3);
#28=FACE_OUTER_BOUND('',#35,.T.);
#29=FACE_OUTER_BOUND('',#36,.T.);
#30=FACE_OUTER_BOUND('',#37,.T.);
#31=FACE_OUTER_BOUND('',#39,.T.);
#32=FACE_OUTER_BOUND('',#40,.T.);
#33=FACE_OUTER_BOUND('',#41,.T.);
#34=FACE_OUTER_BOUND('',#42,.T.);
#35=EDGE_LOOP('',(#86));
#36=EDGE_LOOP('',(#87,#88,#89,#90));
#37=EDGE_LOOP('',(#91,#92));
#38=EDGE_LOOP('',(#93));
#39=EDGE_LOOP('',(#94,#95,#96,#97,#98,#99));
#40=EDGE_LOOP('',(#100,#101,#102,#103,#104,#105,#106));
#41=EDGE_LOOP('',(#107,#108,#109,#110,#111,#112,#113));
#42=EDGE_LOOP('',(#114,#115));
#43=EDGE_LOOP('',(#116,#117));
#44=CIRCLE('',#142,2.942);
#45=CIRCLE('',#144,2.942);
#46=CIRCLE('',#146,4.3);
#47=CIRCLE('',#147,4.3);
#48=CIRCLE('',#149,4.3);
#49=CIRCLE('',#150,4.3);
#50=CIRCLE('',#152,2.46812156599912);
#51=CIRCLE('',#153,2.46812156599912);
#52=CIRCLE('',#154,2.46812156599912);
#53=CIRCLE('',#156,0.499999999999991);
#54=CIRCLE('',#157,2.24966776604404);
#55=CIRCLE('',#158,2.24966776604404);
#56=CIRCLE('',#160,2.5);
#57=VERTEX_POINT('',#208);
#58=VERTEX_POINT('',#211);
#59=VERTEX_POINT('',#215);
#60=VERTEX_POINT('',#216);
#61=VERTEX_POINT('',#220);
#62=VERTEX_POINT('',#221);
#63=VERTEX_POINT('',#226);
#64=VERTEX_POINT('',#227);
#65=VERTEX_POINT('',#229);
#66=VERTEX_POINT('',#234);
#67=VERTEX_POINT('',#236);
#68=VERTEX_POINT('',#240);
#69=VERTEX_POINT('',#241);
#70=EDGE_CURVE('',#57,#57,#44,.T.);
#71=EDGE_CURVE('',#58,#58,#45,.T.);
#72=EDGE_CURVE('',#58,#57,#20,.T.);
#73=EDGE_CURVE('',#59,#60,#46,.T.);
#74=EDGE_CURVE('',#60,#59,#47,.T.);
#75=EDGE_CURVE('',#61,#62,#48,.T.);
#76=EDGE_CURVE('',#62,#61,#49,.T.);
#77=EDGE_CURVE('',#62,#60,#21,.T.);
#78=EDGE_CURVE('',#63,#64,#50,.T.);
#79=EDGE_CURVE('',#65,#63,#51,.T.);
#80=EDGE_CURVE('',#65,#62,#22,.T.);
#81=EDGE_CURVE('',#64,#65,#52,.T.);
#82=EDGE_CURVE('',#64,#66,#53,.T.);
#83=EDGE_CURVE('',#67,#66,#54,.T.);
#84=EDGE_CURVE('',#66,#67,#55,.T.);
#85=EDGE_CURVE('',#68,#69,#56,.T.);
#86=ORIENTED_EDGE('',*,*,#70,.F.);
#87=ORIENTED_EDGE('',*,*,#71,.F.);
#88=ORIENTED_EDGE('',*,*,#72,.T.);
#89=ORIENTED_EDGE('',*,*,#70,.T.);
#90=ORIENTED_EDGE('',*,*,#72,.F.);
#91=ORIENTED_EDGE('',*,*,#73,.F.);
#92=ORIENTED_EDGE('',*,*,#74,.F.);
#93=ORIENTED_EDGE('',*,*,#71,.T.);
#94=ORIENTED_EDGE('',*,*,#75,.F.);
#95=ORIENTED_EDGE('',*,*,#76,.F.);
#96=ORIENTED_EDGE('',*,*,#77,.T.);
#97=ORIENTED_EDGE('',*,*,#74,.T.);
#98=ORIENTED_EDGE('',*,*,#73,.T.);
#99=ORIENTED_EDGE('',*,*,#77,.F.);
#100=ORIENTED_EDGE('',*,*,#78,.F.);
#101=ORIENTED_EDGE('',*,*,#79,.F.);
#102=ORIENTED_EDGE('',*,*,#80,.T.);
#103=ORIENTED_EDGE('',*,*,#76,.T.);
#104=ORIENTED_EDGE('',*,*,#75,.T.);
#105=ORIENTED_EDGE('',*,*,#80,.F.);
#106=ORIENTED_EDGE('',*,*,#81,.F.);
#107=ORIENTED_EDGE('',*,*,#78,.T.);
#108=ORIENTED_EDGE('',*,*,#82,.T.);
#109=ORIENTED_EDGE('',*,*,#83,.F.);
#110=ORIENTED_EDGE('',*,*,#84,.F.);
#111=ORIENTED_EDGE('',*,*,#82,.F.);
#112=ORIENTED_EDGE('',*,*,#81,.T.);
#113=ORIENTED_EDGE('',*,*,#79,.T.);
#114=ORIENTED_EDGE('',*,*,#85,.T.);
#115=ORIENTED_EDGE('',*,*,#85,.F.);
#116=ORIENTED_EDGE('',*,*,#83,.T.);
#117=ORIENTED_EDGE('',*,*,#84,.T.);
#118=PLANE('',#141);
#119=PLANE('',#145);
#120=ADVANCED_FACE('',(#28),#118,.T.);
#121=ADVANCED_FACE('',(#29),#26,.T.);
#122=ADVANCED_FACE('',(#30,#18),#119,.T.);
#123=ADVANCED_FACE('',(#31),#27,.T.);
#124=ADVANCED_FACE('',(#32),#17,.T.);
#125=ADVANCED_FACE('',(#33),#16,.F.);
#126=ADVANCED_FACE('',(#34,#19),#15,.T.);
#127=CLOSED_SHELL('',(#120,#121,#122,#123,#124,#125,#126));
#128=DERIVED_UNIT_ELEMENT(#130,1.);
#129=DERIVED_UNIT_ELEMENT(#248,3.);
#130=(
MASS_UNIT()
NAMED_UNIT(*)
SI_UNIT(.KILO.,.GRAM.)
);
#131=DERIVED_UNIT((#128,#129));
#132=MEASURE_REPRESENTATION_ITEM('density measure',
POSITIVE_RATIO_MEASURE(7850.),#131);
#133=PROPERTY_DEFINITION_REPRESENTATION(#138,#135);
#134=PROPERTY_DEFINITION_REPRESENTATION(#139,#136);
#135=REPRESENTATION('material name',(#137),#245);
#136=REPRESENTATION('density',(#132),#245);
#137=DESCRIPTIVE_REPRESENTATION_ITEM('Steel','Steel');
#138=PROPERTY_DEFINITION('material property','material name',#255);
#139=PROPERTY_DEFINITION('material property','density of part',#255);
#140=AXIS2_PLACEMENT_3D('placement',#206,#161,#162);
#141=AXIS2_PLACEMENT_3D('',#207,#163,#164);
#142=AXIS2_PLACEMENT_3D('',#209,#165,#166);
#143=AXIS2_PLACEMENT_3D('',#210,#167,#168);
#144=AXIS2_PLACEMENT_3D('',#212,#169,#170);
#145=AXIS2_PLACEMENT_3D('',#214,#172,#173);
#146=AXIS2_PLACEMENT_3D('',#217,#174,#175);
#147=AXIS2_PLACEMENT_3D('',#218,#176,#177);
#148=AXIS2_PLACEMENT_3D('',#219,#178,#179);
#149=AXIS2_PLACEMENT_3D('',#222,#180,#181);
#150=AXIS2_PLACEMENT_3D('',#223,#182,#183);
#151=AXIS2_PLACEMENT_3D('',#225,#185,#186);
#152=AXIS2_PLACEMENT_3D('',#228,#187,#188);
#153=AXIS2_PLACEMENT_3D('',#230,#189,#190);
#154=AXIS2_PLACEMENT_3D('',#232,#192,#193);
#155=AXIS2_PLACEMENT_3D('',#233,#194,#195);
#156=AXIS2_PLACEMENT_3D('',#235,#196,#197);
#157=AXIS2_PLACEMENT_3D('',#237,#198,#199);
#158=AXIS2_PLACEMENT_3D('',#238,#200,#201);
#159=AXIS2_PLACEMENT_3D('',#239,#202,#203);
#160=AXIS2_PLACEMENT_3D('',#242,#204,#205);
#161=DIRECTION('axis',(0.,0.,1.));
#162=DIRECTION('refdir',(1.,0.,0.));
#163=DIRECTION('center_axis',(0.,1.,0.));
#164=DIRECTION('ref_axis',(0.,0.,1.));
#165=DIRECTION('center_axis',(0.,-1.,0.));
#166=DIRECTION('ref_axis',(1.,0.,0.));
#167=DIRECTION('center_axis',(0.,-1.,0.));
#168=DIRECTION('ref_axis',(1.,0.,0.));
#169=DIRECTION('center_axis',(0.,-1.,0.));
#170=DIRECTION('ref_axis',(1.,0.,0.));
#171=DIRECTION('',(0.,1.,0.));
#172=DIRECTION('center_axis',(0.,1.,0.));
#173=DIRECTION('ref_axis',(0.,0.,1.));
#174=DIRECTION('center_axis',(0.,-1.,0.));
#175=DIRECTION('ref_axis',(1.,0.,0.));
#176=DIRECTION('center_axis',(0.,-1.,0.));
#177=DIRECTION('ref_axis',(1.,0.,0.));
#178=DIRECTION('center_axis',(0.,-1.,0.));
#179=DIRECTION('ref_axis',(1.,0.,0.));
#180=DIRECTION('center_axis',(0.,-1.,0.));
#181=DIRECTION('ref_axis',(1.,0.,0.));
#182=DIRECTION('center_axis',(0.,-1.,0.));
#183=DIRECTION('ref_axis',(1.,0.,0.));
#184=DIRECTION('',(0.,1.,0.));
#185=DIRECTION('center_axis',(0.,1.,0.));
#186=DIRECTION('ref_axis',(1.,0.,0.));
#187=DIRECTION('center_axis',(0.,-1.,0.));
#188=DIRECTION('ref_axis',(1.,0.,0.));
#189=DIRECTION('center_axis',(0.,-1.,0.));
#190=DIRECTION('ref_axis',(1.,0.,0.));
#191=DIRECTION('',(-0.886379430793828,0.462959506507436,-1.08550173275171E-16));
#192=DIRECTION('center_axis',(0.,-1.,0.));
#193=DIRECTION('ref_axis',(1.,0.,0.));
#194=DIRECTION('center_axis',(0.,-1.,0.));
#195=DIRECTION('ref_axis',(0.,0.,-1.));
#196=DIRECTION('center_axis',(-1.,0.,0.));
#197=DIRECTION('ref_axis',(0.,0.,1.));
#198=DIRECTION('center_axis',(0.,-1.,0.));
#199=DIRECTION('ref_axis',(1.,0.,0.));
#200=DIRECTION('center_axis',(0.,-1.,0.));
#201=DIRECTION('ref_axis',(1.,0.,0.));
#202=DIRECTION('center_axis',(0.,0.,1.));
#203=DIRECTION('ref_axis',(1.,0.,0.));
#204=DIRECTION('center_axis',(0.,-1.,0.));
#205=DIRECTION('ref_axis',(-1.,0.,0.));
#206=CARTESIAN_POINT('',(0.,0.,0.));
#207=CARTESIAN_POINT('Origin',(-32.0278376886255,53.6965308580804,0.));
#208=CARTESIAN_POINT('',(-37.7698376886255,53.6965308580804,-3.60291088309151E-16));
#209=CARTESIAN_POINT('Origin',(-34.8278376886255,53.6965308580804,0.));
#210=CARTESIAN_POINT('Origin',(-34.8278376886255,50.1850473387939,0.));
#211=CARTESIAN_POINT('',(-37.7698376886255,46.6735638195073,-3.60291088309151E-16));
#212=CARTESIAN_POINT('Origin',(-34.8278376886255,46.6735638195073,0.));
#213=CARTESIAN_POINT('',(-37.7698376886255,50.1850473387939,-3.60291088309151E-16));
#214=CARTESIAN_POINT('Origin',(-30.5278376886255,46.6735638195073,0.));
#215=CARTESIAN_POINT('',(-30.5278376886255,46.6735638195073,0.));
#216=CARTESIAN_POINT('',(-39.1278376886255,46.6735638195073,-5.26598123633362E-16));
#217=CARTESIAN_POINT('Origin',(-34.8278376886255,46.6735638195073,0.));
#218=CARTESIAN_POINT('Origin',(-34.8278376886255,46.6735638195073,0.));
#219=CARTESIAN_POINT('Origin',(-34.8278376886255,46.5392871651118,0.));
#220=CARTESIAN_POINT('',(-30.5278376886255,46.4050105107163,0.));
#221=CARTESIAN_POINT('',(-39.1278376886255,46.4050105107163,-5.26598123633362E-16));
#222=CARTESIAN_POINT('Origin',(-34.8278376886255,46.4050105107163,0.));
#223=CARTESIAN_POINT('Origin',(-34.8278376886255,46.4050105107163,0.));
#224=CARTESIAN_POINT('',(-39.1278376886255,46.5392871651118,-5.26598123633362E-16));
#225=CARTESIAN_POINT('Origin',(-34.8278376886255,45.9266118101581,0.));
#226=CARTESIAN_POINT('',(-32.3597161226264,45.4482131095998,0.));
#227=CARTESIAN_POINT('',(-34.8278376886255,45.4482131095998,2.46812156599912));
#228=CARTESIAN_POINT('Origin',(-34.8278376886255,45.4482131095998,0.));
#229=CARTESIAN_POINT('',(-37.2959592546246,45.4482131095998,-3.02257717570737E-16));
#230=CARTESIAN_POINT('Origin',(-34.8278376886255,45.4482131095998,0.));
#231=CARTESIAN_POINT('',(-38.2118984716251,45.9266118101581,-4.1442792060205E-16));
#232=CARTESIAN_POINT('Origin',(-34.8278376886255,45.4482131095998,0.));
#233=CARTESIAN_POINT('Origin',(-34.8278376886255,45.0050233942029,0.));
#234=CARTESIAN_POINT('',(-34.8278376886255,44.7869413048492,2.24966776604404));
#235=CARTESIAN_POINT('Origin',(-34.8278376886255,45.0050233942029,2.69960131925284));
#236=CARTESIAN_POINT('',(-32.5781699225815,44.7869413048492,0.));
#237=CARTESIAN_POINT('Origin',(-34.8278376886255,44.7869413048492,0.));
#238=CARTESIAN_POINT('Origin',(-34.8278376886255,44.7869413048492,0.));
#239=CARTESIAN_POINT('Origin',(-34.8278376886255,43.6965308580804,0.));
#240=CARTESIAN_POINT('',(-34.8278376886255,43.6965308580804,2.5));
#241=CARTESIAN_POINT('',(-34.8278376886255,43.6965308580804,-2.5));
#242=CARTESIAN_POINT('Origin',(-34.8278376886255,43.6965308580804,0.));
#243=UNCERTAINTY_MEASURE_WITH_UNIT(LENGTH_MEASURE(0.01),#247,
'DISTANCE_ACCURACY_VALUE',
'Maximum model space distance between geometric entities at asserted c
onnectivities');
#244=UNCERTAINTY_MEASURE_WITH_UNIT(LENGTH_MEASURE(0.01),#247,
'DISTANCE_ACCURACY_VALUE',
'Maximum model space distance between geometric entities at asserted c
onnectivities');
#245=(
GEOMETRIC_REPRESENTATION_CONTEXT(3)
GLOBAL_UNCERTAINTY_ASSIGNED_CONTEXT((#243))
GLOBAL_UNIT_ASSIGNED_CONTEXT((#247,#249,#250))
REPRESENTATION_CONTEXT('','3D')
);
#246=(
GEOMETRIC_REPRESENTATION_CONTEXT(3)
GLOBAL_UNCERTAINTY_ASSIGNED_CONTEXT((#244))
GLOBAL_UNIT_ASSIGNED_CONTEXT((#247,#249,#250))
REPRESENTATION_CONTEXT('','3D')
);
#247=(
LENGTH_UNIT()
NAMED_UNIT(*)
SI_UNIT(.MILLI.,.METRE.)
);
#248=(
LENGTH_UNIT()
NAMED_UNIT(*)
SI_UNIT($,.METRE.)
);
#249=(
NAMED_UNIT(*)
PLANE_ANGLE_UNIT()
SI_UNIT($,.RADIAN.)
);
#250=(
NAMED_UNIT(*)
SI_UNIT($,.STERADIAN.)
SOLID_ANGLE_UNIT()
);
#251=SHAPE_DEFINITION_REPRESENTATION(#252,#253);
#252=PRODUCT_DEFINITION_SHAPE('',$,#255);
#253=SHAPE_REPRESENTATION('',(#140),#245);
#254=PRODUCT_DEFINITION_CONTEXT('part definition',#259,'design');
#255=PRODUCT_DEFINITION('Boule','Boule v2',#256,#254);
#256=PRODUCT_DEFINITION_FORMATION('',$,#261);
#257=PRODUCT_RELATED_PRODUCT_CATEGORY('Boule v2','Boule v2',(#261));
#258=APPLICATION_PROTOCOL_DEFINITION('international standard',
'automotive_design',2009,#259);
#259=APPLICATION_CONTEXT(
'Core Data for Automotive Mechanical Design Process');
#260=PRODUCT_CONTEXT('part definition',#259,'mechanical');
#261=PRODUCT('Boule','Boule v2',$,(#260));
#262=PRESENTATION_STYLE_ASSIGNMENT((#263));
#263=SURFACE_STYLE_USAGE(.BOTH.,#264);
#264=SURFACE_SIDE_STYLE('',(#265));
#265=SURFACE_STYLE_FILL_AREA(#266);
#266=FILL_AREA_STYLE('Steel - Satin',(#267));
#267=FILL_AREA_STYLE_COLOUR('Steel - Satin',#268);
#268=COLOUR_RGB('Steel - Satin',0.627450980392157,0.627450980392157,0.627450980392157);
ENDSEC;
END-ISO-10303-21;
