ISO-10303-21;
HEADER;
FILE_DESCRIPTION (( 'STEP AP214' ),
    '1' );
FILE_NAME ('axe_2.STEP',
    '2018-11-06T12:44:22',
    ( 'Maxime' ),
    ( '' ),
    'SwSTEP 2.0',
    'SolidWorks 2013',
    '' );
FILE_SCHEMA (( 'AUTOMOTIVE_DESIGN' ));
ENDSEC;

DATA;
#1 = EDGE_CURVE ( 'NONE', #224, #77, #75, .T. ) ;
#2 = CYLINDRICAL_SURFACE ( 'NONE', #349, 1.750000000000000000 ) ;
#3 = ORIENTED_EDGE ( 'NONE', *, *, #378, .F. ) ;
#4 = DIRECTION ( 'NONE',  ( 0.0000000000000000000, 0.0000000000000000000, 1.000000000000000000 ) ) ;
#5 = CARTESIAN_POINT ( 'NONE',  ( 22.80000000000000100, 1.224646799147353000E-016, -0.9999999999999997800 ) ) ;
#6 = SURFACE_SIDE_STYLE ('',( #133 ) ) ;
#7 = CARTESIAN_POINT ( 'NONE',  ( 0.0000000000000000000, 0.0000000000000000000, 0.0000000000000000000 ) ) ;
#8 = AXIS2_PLACEMENT_3D ( 'NONE', #370, #66, #341 ) ;
#9 = EDGE_CURVE ( 'NONE', #363, #130, #84, .T. ) ;
#10 = CIRCLE ( 'NONE', #318, 0.9999999999999997800 ) ;
#11 = ORIENTED_EDGE ( 'NONE', *, *, #1, .T. ) ;
#12 = AXIS2_PLACEMENT_3D ( 'NONE', #58, #397, #181 ) ;
#13 = CARTESIAN_POINT ( 'NONE',  ( 5.000000000000000000, 0.0000000000000000000, -1.000000000000000000 ) ) ;
#14 = CIRCLE ( 'NONE', #144, 0.7999999999999986000 ) ;
#15 =( NAMED_UNIT ( * ) PLANE_ANGLE_UNIT ( ) SI_UNIT ( $, .RADIAN. ) );
#16 = VERTEX_POINT ( 'NONE', #109 ) ;
#17 = VECTOR ( 'NONE', #297, 1000.000000000000100 ) ;
#18 = EDGE_CURVE ( 'NONE', #20, #275, #391, .T. ) ;
#19 = DIRECTION ( 'NONE',  ( -1.000000000000000000, -0.0000000000000000000, -0.0000000000000000000 ) ) ;
#20 = VERTEX_POINT ( 'NONE', #232 ) ;
#21 = DIRECTION ( 'NONE',  ( 0.0000000000000000000, 0.0000000000000000000, 1.000000000000000000 ) ) ;
#22 = PRESENTATION_STYLE_ASSIGNMENT (( #225 ) ) ;
#23 = DIRECTION ( 'NONE',  ( -1.000000000000000000, -0.0000000000000000000, -0.0000000000000000000 ) ) ;
#24 =( GEOMETRIC_REPRESENTATION_CONTEXT ( 3 ) GLOBAL_UNCERTAINTY_ASSIGNED_CONTEXT ( ( #126 ) ) GLOBAL_UNIT_ASSIGNED_CONTEXT ( ( #67, #283, #102 ) ) REPRESENTATION_CONTEXT ( 'NONE', 'WORKASPACE' ) );
#25 = EDGE_LOOP ( 'NONE', ( #42, #38, #90, #59 ) ) ;
#26 = EDGE_CURVE ( 'NONE', #16, #336, #151, .T. ) ;
#27 = ADVANCED_FACE ( 'NONE', ( #175, #242 ), #292, .F. ) ;
#28 = DIRECTION ( 'NONE',  ( 0.0000000000000000000, 0.0000000000000000000, 1.000000000000000000 ) ) ;
#29 = ORIENTED_EDGE ( 'NONE', *, *, #338, .T. ) ;
#30 = DIRECTION ( 'NONE',  ( 0.0000000000000000000, 0.0000000000000000000, 1.000000000000000000 ) ) ;
#31 = AXIS2_PLACEMENT_3D ( 'NONE', #246, #305, #21 ) ;
#32 = PRODUCT ( 'axe_2', 'axe_2', '', ( #140 ) ) ;
#33 = DIRECTION ( 'NONE',  ( 0.0000000000000000000, 0.0000000000000000000, 1.000000000000000000 ) ) ;
#34 = VERTEX_POINT ( 'NONE', #200 ) ;
#35 =( LENGTH_UNIT ( ) NAMED_UNIT ( * ) SI_UNIT ( .MILLI., .METRE. ) );
#36 = ORIENTED_EDGE ( 'NONE', *, *, #280, .F. ) ;
#37 = AXIS2_PLACEMENT_3D ( 'NONE', #170, #383, #201 ) ;
#38 = ORIENTED_EDGE ( 'NONE', *, *, #300, .F. ) ;
#39 = CONICAL_SURFACE ( 'NONE', #8, 0.9999999999999997800, 0.7853981633974456100 ) ;
#40 = DIRECTION ( 'NONE',  ( -1.000000000000000000, -0.0000000000000000000, -0.0000000000000000000 ) ) ;
#41 = CARTESIAN_POINT ( 'NONE',  ( 22.80000000000000100, 1.224646799147353000E-016, -0.9999999999999997800 ) ) ;
#42 = ORIENTED_EDGE ( 'NONE', *, *, #45, .F. ) ;
#43 = DIRECTION ( 'NONE',  ( -0.7071067811865493500, 0.0000000000000000000, 0.7071067811865456900 ) ) ;
#44 = MANIFOLD_SOLID_BREP ( 'Chanfrein1', #52 ) ;
#45 = EDGE_CURVE ( 'NONE', #179, #314, #106, .T. ) ;
#46 = CARTESIAN_POINT ( 'NONE',  ( 0.0000000000000000000, 0.0000000000000000000, 0.0000000000000000000 ) ) ;
#47 = SURFACE_STYLE_FILL_AREA ( #111 ) ;
#48 = DIRECTION ( 'NONE',  ( -1.000000000000000000, -0.0000000000000000000, -0.0000000000000000000 ) ) ;
#49 = ORIENTED_EDGE ( 'NONE', *, *, #345, .T. ) ;
#50 = DIRECTION ( 'NONE',  ( -1.000000000000000000, -0.0000000000000000000, -0.0000000000000000000 ) ) ;
#51 = DIRECTION ( 'NONE',  ( 0.0000000000000000000, 0.0000000000000000000, 1.000000000000000000 ) ) ;
#52 = CLOSED_SHELL ( 'NONE', ( #185, #278, #61, #127, #311, #97, #250, #27, #337, #219, #281, #156, #367, #399 ) ) ;
#53 = DIRECTION ( 'NONE',  ( -0.0000000000000000000, 0.0000000000000000000, 1.000000000000000000 ) ) ;
#54 = CIRCLE ( 'NONE', #362, 0.9999999999999995600 ) ;
#55 = DIRECTION ( 'NONE',  ( 0.0000000000000000000, 0.0000000000000000000, 1.000000000000000000 ) ) ;
#56 = ORIENTED_EDGE ( 'NONE', *, *, #139, .F. ) ;
#57 = AXIS2_PLACEMENT_3D ( 'NONE', #119, #304, #88 ) ;
#58 = CARTESIAN_POINT ( 'NONE',  ( 22.99999999999999600, 0.0000000000000000000, -1.000000000000000000 ) ) ;
#59 = ORIENTED_EDGE ( 'NONE', *, *, #260, .F. ) ;
#60 = CARTESIAN_POINT ( 'NONE',  ( 0.0000000000000000000, 2.143131898507868300E-016, -1.750000000000000000 ) ) ;
#61 = ADVANCED_FACE ( 'NONE', ( #339 ), #99, .T. ) ;
#62 = PRODUCT_DEFINITION_CONTEXT ( 'detailed design', #346, 'design' ) ;
#63 = CARTESIAN_POINT ( 'NONE',  ( 5.000000000000000000, 1.224646799147353200E-016, -1.000000000000000000 ) ) ;
#64 = LINE ( 'NONE', #343, #379 ) ;
#65 = VECTOR ( 'NONE', #386, 1000.000000000000000 ) ;
#66 = DIRECTION ( 'NONE',  ( -1.000000000000000000, -0.0000000000000000000, -0.0000000000000000000 ) ) ;
#67 =( LENGTH_UNIT ( ) NAMED_UNIT ( * ) SI_UNIT ( .MILLI., .METRE. ) );
#68 = DIRECTION ( 'NONE',  ( 1.000000000000000000, 0.0000000000000000000, 0.0000000000000000000 ) ) ;
#69 = DIRECTION ( 'NONE',  ( 0.0000000000000000000, 0.0000000000000000000, 1.000000000000000000 ) ) ;
#70 = DIRECTION ( 'NONE',  ( 0.0000000000000000000, 0.0000000000000000000, -1.000000000000000000 ) ) ;
#71 = STYLED_ITEM ( 'NONE', ( #22 ), #194 ) ;
#72 = EDGE_CURVE ( 'NONE', #34, #287, #178, .T. ) ;
#73 =( NAMED_UNIT ( * ) SI_UNIT ( $, .STERADIAN. ) SOLID_ANGLE_UNIT ( ) );
#74 = CYLINDRICAL_SURFACE ( 'NONE', #342, 1.750000000000000000 ) ;
#75 = LINE ( 'NONE', #350, #157 ) ;
#76 = CYLINDRICAL_SURFACE ( 'NONE', #199, 1.000000000000000000 ) ;
#77 = VERTEX_POINT ( 'NONE', #205 ) ;
#78 = ORIENTED_EDGE ( 'NONE', *, *, #326, .F. ) ;
#79 = DIRECTION ( 'NONE',  ( 1.000000000000000000, 0.0000000000000000000, 0.0000000000000000000 ) ) ;
#80 = DIRECTION ( 'NONE',  ( -1.000000000000000000, -0.0000000000000000000, -0.0000000000000000000 ) ) ;
#81 = DIRECTION ( 'NONE',  ( -1.000000000000000000, -0.0000000000000000000, -0.0000000000000000000 ) ) ;
#82 = CARTESIAN_POINT ( 'NONE',  ( 0.0000000000000000000, 0.0000000000000000000, 0.0000000000000000000 ) ) ;
#83 = LINE ( 'NONE', #60, #400 ) ;
#84 = LINE ( 'NONE', #264, #165 ) ;
#85 = DIRECTION ( 'NONE',  ( 0.0000000000000000000, 0.0000000000000000000, 1.000000000000000000 ) ) ;
#86 = CARTESIAN_POINT ( 'NONE',  ( 5.000000000000000000, 0.0000000000000000000, 0.0000000000000000000 ) ) ;
#87 = STYLED_ITEM ( 'NONE', ( #138 ), #44 ) ;
#88 = DIRECTION ( 'NONE',  ( 0.0000000000000000000, 0.0000000000000000000, 1.000000000000000000 ) ) ;
#89 = CIRCLE ( 'NONE', #335, 1.000000000000000000 ) ;
#90 = ORIENTED_EDGE ( 'NONE', *, *, #309, .T. ) ;
#91 = ORIENTED_EDGE ( 'NONE', *, *, #357, .T. ) ;
#92 = CARTESIAN_POINT ( 'NONE',  ( 5.000000000000000000, 0.0000000000000000000, 0.0000000000000000000 ) ) ;
#93 = DIRECTION ( 'NONE',  ( 0.0000000000000000000, 0.0000000000000000000, -1.000000000000000000 ) ) ;
#94 = PRESENTATION_LAYER_ASSIGNMENT (  '', '', ( #71 ) ) ;
#95 = FACE_OUTER_BOUND ( 'NONE', #112, .T. ) ;
#96 = EDGE_CURVE ( 'NONE', #179, #369, #186, .T. ) ;
#97 = ADVANCED_FACE ( 'NONE', ( #261 ), #354, .F. ) ;
#98 = DIRECTION ( 'NONE',  ( 0.0000000000000000000, 0.0000000000000000000, -1.000000000000000000 ) ) ;
#99 = CYLINDRICAL_SURFACE ( 'NONE', #230, 0.9999999999999997800 ) ;
#100 = ORIENTED_EDGE ( 'NONE', *, *, #220, .T. ) ;
#101 = CARTESIAN_POINT ( 'NONE',  ( 18.00000000000000000, 0.0000000000000000000, 0.0000000000000000000 ) ) ;
#102 =( NAMED_UNIT ( * ) SI_UNIT ( $, .STERADIAN. ) SOLID_ANGLE_UNIT ( ) );
#103 = AXIS2_PLACEMENT_3D ( 'NONE', #358, #150, #332 ) ;
#104 = ORIENTED_EDGE ( 'NONE', *, *, #300, .T. ) ;
#105 = DIRECTION ( 'NONE',  ( 0.0000000000000000000, 0.0000000000000000000, 1.000000000000000000 ) ) ;
#106 = LINE ( 'NONE', #41, #17 ) ;
#107 = AXIS2_PLACEMENT_3D ( 'NONE', #13, #79, #294 ) ;
#108 = EDGE_LOOP ( 'NONE', ( #49, #184 ) ) ;
#109 = CARTESIAN_POINT ( 'NONE',  ( 5.000000000000000000, 0.0000000000000000000, 1.000000000000000000 ) ) ;
#110 = MECHANICAL_DESIGN_GEOMETRIC_PRESENTATION_REPRESENTATION (  '', ( #71 ), #137 ) ;
#111 = FILL_AREA_STYLE ('',( #325 ) ) ;
#112 = EDGE_LOOP ( 'NONE', ( #128, #351, #143, #227 ) ) ;
#113 = CARTESIAN_POINT ( 'NONE',  ( 0.0000000000000000000, 0.0000000000000000000, 0.0000000000000000000 ) ) ;
#114 = EDGE_CURVE ( 'NONE', #363, #16, #216, .T. ) ;
#115 = DIRECTION ( 'NONE',  ( -1.000000000000000000, -0.0000000000000000000, -0.0000000000000000000 ) ) ;
#116 = CARTESIAN_POINT ( 'NONE',  ( 0.0000000000000000000, 0.0000000000000000000, 0.0000000000000000000 ) ) ;
#117 = PRODUCT_DEFINITION_SHAPE ( 'NONE', 'NONE',  #215 ) ;
#118 = DIRECTION ( 'NONE',  ( 0.0000000000000000000, 0.0000000000000000000, 1.000000000000000000 ) ) ;
#119 = CARTESIAN_POINT ( 'NONE',  ( 18.00000000000000000, 0.0000000000000000000, 0.0000000000000000000 ) ) ;
#120 = ORIENTED_EDGE ( 'NONE', *, *, #174, .F. ) ;
#121 = AXIS2_PLACEMENT_3D ( 'NONE', #334, #271, #53 ) ;
#122 = CARTESIAN_POINT ( 'NONE',  ( 0.2000000000000009500, 0.0000000000000000000, 0.0000000000000000000 ) ) ;
#123 = EDGE_LOOP ( 'NONE', ( #312, #91, #3, #290 ) ) ;
#124 = ORIENTED_EDGE ( 'NONE', *, *, #280, .T. ) ;
#125 = EDGE_LOOP ( 'NONE', ( #104, #161 ) ) ;
#126 = UNCERTAINTY_MEASURE_WITH_UNIT (LENGTH_MEASURE( 1.000000000000000100E-005 ), #67, 'distance_accuracy_value', 'NONE');
#127 = ADVANCED_FACE ( 'NONE', ( #333 ), #2, .T. ) ;
#128 = ORIENTED_EDGE ( 'NONE', *, *, #9, .F. ) ;
#129 = DIRECTION ( 'NONE',  ( 1.000000000000000000, 0.0000000000000000000, 0.0000000000000000000 ) ) ;
#130 = VERTEX_POINT ( 'NONE', #398 ) ;
#131 = PRESENTATION_LAYER_ASSIGNMENT (  '', '', ( #87 ) ) ;
#132 = DIRECTION ( 'NONE',  ( 0.0000000000000000000, 0.0000000000000000000, 1.000000000000000000 ) ) ;
#133 = SURFACE_STYLE_FILL_AREA ( #190 ) ;
#134 = APPLICATION_PROTOCOL_DEFINITION ( 'draft international standard', 'automotive_design', 1998, #162 ) ;
#135 = CARTESIAN_POINT ( 'NONE',  ( 0.2000000000000009500, 0.0000000000000000000, 0.0000000000000000000 ) ) ;
#136 = ORIENTED_EDGE ( 'NONE', *, *, #195, .F. ) ;
#137 =( GEOMETRIC_REPRESENTATION_CONTEXT ( 3 ) GLOBAL_UNCERTAINTY_ASSIGNED_CONTEXT ( ( #266 ) ) GLOBAL_UNIT_ASSIGNED_CONTEXT ( ( #35, #259, #73 ) ) REPRESENTATION_CONTEXT ( 'NONE', 'WORKASPACE' ) );
#138 = PRESENTATION_STYLE_ASSIGNMENT (( #384 ) ) ;
#139 = EDGE_CURVE ( 'NONE', #336, #130, #89, .T. ) ;
#140 = PRODUCT_CONTEXT ( 'NONE', #162, 'mechanical' ) ;
#141 = ORIENTED_EDGE ( 'NONE', *, *, #260, .T. ) ;
#142 = FACE_OUTER_BOUND ( 'NONE', #25, .T. ) ;
#143 = ORIENTED_EDGE ( 'NONE', *, *, #26, .T. ) ;
#144 = AXIS2_PLACEMENT_3D ( 'NONE', #270, #50, #239 ) ;
#145 = DIRECTION ( 'NONE',  ( -1.000000000000000000, -0.0000000000000000000, -0.0000000000000000000 ) ) ;
#146 = ORIENTED_EDGE ( 'NONE', *, *, #357, .F. ) ;
#147 = CARTESIAN_POINT ( 'NONE',  ( 5.000000000000000000, 2.143131898507868300E-016, -1.750000000000000000 ) ) ;
#148 = DIRECTION ( 'NONE',  ( 1.000000000000000000, 0.0000000000000000000, 0.0000000000000000000 ) ) ;
#149 = DIRECTION ( 'NONE',  ( 1.000000000000000000, 0.0000000000000000000, 0.0000000000000000000 ) ) ;
#150 = DIRECTION ( 'NONE',  ( -1.000000000000000000, -0.0000000000000000000, -0.0000000000000000000 ) ) ;
#151 = LINE ( 'NONE', #352, #298 ) ;
#152 = MECHANICAL_DESIGN_GEOMETRIC_PRESENTATION_REPRESENTATION (  '', ( #87 ), #168 ) ;
#153 = CONICAL_SURFACE ( 'NONE', #31, 0.9999999999999997800, 0.7853981633974456100 ) ;
#154 = CIRCLE ( 'NONE', #249, 0.8000000000000056000 ) ;
#155 = EDGE_CURVE ( 'NONE', #224, #314, #10, .T. ) ;
#156 = ADVANCED_FACE ( 'NONE', ( #167 ), #183, .F. ) ;
#157 = VECTOR ( 'NONE', #145, 1000.000000000000000 ) ;
#158 = CARTESIAN_POINT ( 'NONE',  ( 0.0000000000000000000, 0.0000000000000000000, 0.0000000000000000000 ) ) ;
#159 = FACE_BOUND ( 'NONE', #293, .T. ) ;
#160 = CARTESIAN_POINT ( 'NONE',  ( 0.0000000000000000000, 0.0000000000000000000, 0.0000000000000000000 ) ) ;
#161 = ORIENTED_EDGE ( 'NONE', *, *, #96, .T. ) ;
#162 = APPLICATION_CONTEXT ( 'automotive_design' ) ;
#163 = AXIS2_PLACEMENT_3D ( 'NONE', #82, #148, #177 ) ;
#164 = VECTOR ( 'NONE', #234, 1000.000000000000000 ) ;
#165 = VECTOR ( 'NONE', #40, 1000.000000000000000 ) ;
#166 = APPLICATION_PROTOCOL_DEFINITION ( 'draft international standard', 'automotive_design', 1998, #346 ) ;
#167 = FACE_OUTER_BOUND ( 'NONE', #125, .T. ) ;
#168 =( GEOMETRIC_REPRESENTATION_CONTEXT ( 3 ) GLOBAL_UNCERTAINTY_ASSIGNED_CONTEXT ( ( #310 ) ) GLOBAL_UNIT_ASSIGNED_CONTEXT ( ( #203, #15, #236 ) ) REPRESENTATION_CONTEXT ( 'NONE', 'WORKASPACE' ) );
#169 = ORIENTED_EDGE ( 'NONE', *, *, #114, .F. ) ;
#170 = CARTESIAN_POINT ( 'NONE',  ( 18.00000000000000000, 0.0000000000000000000, 0.0000000000000000000 ) ) ;
#171 = CIRCLE ( 'NONE', #103, 0.9999999999999995600 ) ;
#172 = SURFACE_SIDE_STYLE ('',( #47 ) ) ;
#173 = DIRECTION ( 'NONE',  ( -1.000000000000000000, -0.0000000000000000000, -0.0000000000000000000 ) ) ;
#174 = EDGE_CURVE ( 'NONE', #284, #180, #253, .T. ) ;
#175 = FACE_BOUND ( 'NONE', #317, .T. ) ;
#176 = DIRECTION ( 'NONE',  ( 1.000000000000000000, 0.0000000000000000000, 0.0000000000000000000 ) ) ;
#177 = DIRECTION ( 'NONE',  ( 0.0000000000000000000, 0.0000000000000000000, -1.000000000000000000 ) ) ;
#178 = CIRCLE ( 'NONE', #211, 0.7999999999999986000 ) ;
#179 = VERTEX_POINT ( 'NONE', #360 ) ;
#180 = VERTEX_POINT ( 'NONE', #276 ) ;
#181 = DIRECTION ( 'NONE',  ( -0.0000000000000000000, 0.0000000000000000000, 1.000000000000000000 ) ) ;
#182 = AXIS2_PLACEMENT_3D ( 'NONE', #329, #115, #299 ) ;
#183 = PLANE ( 'NONE',  #12 ) ;
#184 = ORIENTED_EDGE ( 'NONE', *, *, #174, .T. ) ;
#185 = ADVANCED_FACE ( 'NONE', ( #323 ), #153, .T. ) ;
#186 = CIRCLE ( 'NONE', #188, 0.8000000000000056000 ) ;
#187 = CIRCLE ( 'NONE', #182, 0.9999999999999997800 ) ;
#188 = AXIS2_PLACEMENT_3D ( 'NONE', #330, #149, #356 ) ;
#189 = DIRECTION ( 'NONE',  ( -1.000000000000000000, -0.0000000000000000000, -0.0000000000000000000 ) ) ;
#190 = FILL_AREA_STYLE ('',( #375 ) ) ;
#191 = CARTESIAN_POINT ( 'NONE',  ( 0.2000000000000009500, 0.0000000000000000000, 1.000000000000000000 ) ) ;
#192 = AXIS2_PLACEMENT_3D ( 'NONE', #160, #105, #320 ) ;
#193 = ORIENTED_EDGE ( 'NONE', *, *, #72, .F. ) ;
#194 = ADVANCED_BREP_SHAPE_REPRESENTATION ( 'axe_2', ( #44, #192 ), #24 ) ;
#195 = EDGE_CURVE ( 'NONE', #275, #20, #231, .T. ) ;
#196 = ORIENTED_EDGE ( 'NONE', *, *, #345, .F. ) ;
#197 = EDGE_LOOP ( 'NONE', ( #302, #308 ) ) ;
#198 = ORIENTED_EDGE ( 'NONE', *, *, #18, .F. ) ;
#199 = AXIS2_PLACEMENT_3D ( 'NONE', #209, #19, #85 ) ;
#200 = CARTESIAN_POINT ( 'NONE',  ( 0.0000000000000000000, 0.0000000000000000000, -0.7999999999999986000 ) ) ;
#201 = DIRECTION ( 'NONE',  ( 0.0000000000000000000, 0.0000000000000000000, 1.000000000000000000 ) ) ;
#202 = EDGE_LOOP ( 'NONE', ( #78, #387, #277, #120 ) ) ;
#203 =( LENGTH_UNIT ( ) NAMED_UNIT ( * ) SI_UNIT ( .MILLI., .METRE. ) );
#204 = CARTESIAN_POINT ( 'NONE',  ( 0.0000000000000000000, 9.797174393178808900E-017, 0.7999999999999986000 ) ) ;
#205 = CARTESIAN_POINT ( 'NONE',  ( 18.00000000000000000, 0.0000000000000000000, 0.9999999999999995600 ) ) ;
#206 = CARTESIAN_POINT ( 'NONE',  ( 18.00000000000000000, 2.143131898507868300E-016, -1.750000000000000000 ) ) ;
#207 = EDGE_LOOP ( 'NONE', ( #214, #361, #196, #353 ) ) ;
#208 = CARTESIAN_POINT ( 'NONE',  ( 0.0000000000000000000, 0.0000000000000000000, 0.0000000000000000000 ) ) ;
#209 = CARTESIAN_POINT ( 'NONE',  ( 0.0000000000000000000, 0.0000000000000000000, 0.0000000000000000000 ) ) ;
#210 = ORIENTED_EDGE ( 'NONE', *, *, #378, .T. ) ;
#211 = AXIS2_PLACEMENT_3D ( 'NONE', #237, #48, #269 ) ;
#212 = COLOUR_RGB ( '',0.7921568627450980000, 0.8196078431372548800, 0.9333333333333333500 ) ;
#213 = DIRECTION ( 'NONE',  ( 0.0000000000000000000, 0.0000000000000000000, 1.000000000000000000 ) ) ;
#214 = ORIENTED_EDGE ( 'NONE', *, *, #18, .T. ) ;
#215 = PRODUCT_DEFINITION ( 'UNKNOWN', '', #235, #62 ) ;
#216 = CIRCLE ( 'NONE', #273, 1.000000000000000000 ) ;
#217 = VECTOR ( 'NONE', #43, 1000.000000000000100 ) ;
#218 = FACE_OUTER_BOUND ( 'NONE', #202, .T. ) ;
#219 = ADVANCED_FACE ( 'NONE', ( #393, #159 ), #392, .F. ) ;
#220 = EDGE_CURVE ( 'NONE', #359, #77, #171, .T. ) ;
#221 = ORIENTED_EDGE ( 'NONE', *, *, #385, .F. ) ;
#222 = CARTESIAN_POINT ( 'NONE',  ( 22.99999999999999600, 0.0000000000000000000, 0.8000000000000056000 ) ) ;
#223 = SHAPE_DEFINITION_REPRESENTATION ( #117, #194 ) ;
#224 = VERTEX_POINT ( 'NONE', #243 ) ;
#225 = SURFACE_STYLE_USAGE ( .BOTH. , #6 ) ;
#226 = AXIS2_PLACEMENT_3D ( 'NONE', #158, #129, #98 ) ;
#227 = ORIENTED_EDGE ( 'NONE', *, *, #139, .T. ) ;
#228 = VECTOR ( 'NONE', #252, 1000.000000000000000 ) ;
#229 = ORIENTED_EDGE ( 'NONE', *, *, #220, .F. ) ;
#230 = AXIS2_PLACEMENT_3D ( 'NONE', #113, #81, #328 ) ;
#231 = CIRCLE ( 'NONE', #57, 1.750000000000000000 ) ;
#232 = CARTESIAN_POINT ( 'NONE',  ( 18.00000000000000000, 0.0000000000000000000, 1.750000000000000000 ) ) ;
#233 = DIRECTION ( 'NONE',  ( -1.000000000000000000, -0.0000000000000000000, -0.0000000000000000000 ) ) ;
#234 = DIRECTION ( 'NONE',  ( 0.7071067811865468000, 0.0000000000000000000, -0.7071067811865483500 ) ) ;
#235 = PRODUCT_DEFINITION_FORMATION_WITH_SPECIFIED_SOURCE ( 'ANY', '', #32, .NOT_KNOWN. ) ;
#236 =( NAMED_UNIT ( * ) SI_UNIT ( $, .STERADIAN. ) SOLID_ANGLE_UNIT ( ) );
#237 = CARTESIAN_POINT ( 'NONE',  ( 0.0000000000000000000, 0.0000000000000000000, 0.0000000000000000000 ) ) ;
#238 = EDGE_CURVE ( 'NONE', #287, #34, #14, .T. ) ;
#239 = DIRECTION ( 'NONE',  ( 0.0000000000000000000, 0.0000000000000000000, -1.000000000000000000 ) ) ;
#240 = DIRECTION ( 'NONE',  ( -1.000000000000000000, -0.0000000000000000000, -0.0000000000000000000 ) ) ;
#241 = CIRCLE ( 'NONE', #324, 1.750000000000000000 ) ;
#242 = FACE_OUTER_BOUND ( 'NONE', #108, .T. ) ;
#243 = CARTESIAN_POINT ( 'NONE',  ( 22.80000000000000100, 0.0000000000000000000, 0.9999999999999997800 ) ) ;
#244 = FACE_OUTER_BOUND ( 'NONE', #262, .T. ) ;
#245 = EDGE_LOOP ( 'NONE', ( #198, #136 ) ) ;
#246 = CARTESIAN_POINT ( 'NONE',  ( 22.80000000000000100, 0.0000000000000000000, 0.0000000000000000000 ) ) ;
#247 = ORIENTED_EDGE ( 'NONE', *, *, #9, .T. ) ;
#248 = CARTESIAN_POINT ( 'NONE',  ( 22.80000000000000100, 0.0000000000000000000, 0.0000000000000000000 ) ) ;
#249 = AXIS2_PLACEMENT_3D ( 'NONE', #254, #68, #30 ) ;
#250 = ADVANCED_FACE ( 'NONE', ( #95 ), #76, .T. ) ;
#251 = CYLINDRICAL_SURFACE ( 'NONE', #307, 1.000000000000000000 ) ;
#252 = DIRECTION ( 'NONE',  ( -1.000000000000000000, -0.0000000000000000000, -0.0000000000000000000 ) ) ;
#253 = CIRCLE ( 'NONE', #395, 1.750000000000000000 ) ;
#254 = CARTESIAN_POINT ( 'NONE',  ( 22.99999999999999600, 0.0000000000000000000, 0.0000000000000000000 ) ) ;
#255 = DIRECTION ( 'NONE',  ( 1.000000000000000000, 0.0000000000000000000, 0.0000000000000000000 ) ) ;
#256 = CYLINDRICAL_SURFACE ( 'NONE', #263, 0.9999999999999997800 ) ;
#257 = PRODUCT_RELATED_PRODUCT_CATEGORY ( 'part', '', ( #32 ) ) ;
#258 = ORIENTED_EDGE ( 'NONE', *, *, #45, .T. ) ;
#259 =( NAMED_UNIT ( * ) PLANE_ANGLE_UNIT ( ) SI_UNIT ( $, .RADIAN. ) );
#260 = EDGE_CURVE ( 'NONE', #314, #224, #187, .T. ) ;
#261 = FACE_OUTER_BOUND ( 'NONE', #197, .T. ) ;
#262 = EDGE_LOOP ( 'NONE', ( #374, #124, #288, #377 ) ) ;
#263 = AXIS2_PLACEMENT_3D ( 'NONE', #46, #173, #268 ) ;
#264 = CARTESIAN_POINT ( 'NONE',  ( 0.0000000000000000000, 1.224646799147353200E-016, -1.000000000000000000 ) ) ;
#265 = CARTESIAN_POINT ( 'NONE',  ( 0.0000000000000000000, 0.0000000000000000000, -0.7999999999999986000 ) ) ;
#266 = UNCERTAINTY_MEASURE_WITH_UNIT (LENGTH_MEASURE( 1.000000000000000100E-005 ), #35, 'distance_accuracy_value', 'NONE');
#267 = ORIENTED_EDGE ( 'NONE', *, *, #26, .F. ) ;
#268 = DIRECTION ( 'NONE',  ( 0.0000000000000000000, 0.0000000000000000000, 1.000000000000000000 ) ) ;
#269 = DIRECTION ( 'NONE',  ( 0.0000000000000000000, 0.0000000000000000000, -1.000000000000000000 ) ) ;
#270 = CARTESIAN_POINT ( 'NONE',  ( 0.0000000000000000000, 0.0000000000000000000, 0.0000000000000000000 ) ) ;
#271 = DIRECTION ( 'NONE',  ( -1.000000000000000000, 0.0000000000000000000, -0.0000000000000000000 ) ) ;
#272 = ORIENTED_EDGE ( 'NONE', *, *, #309, .F. ) ;
#273 = AXIS2_PLACEMENT_3D ( 'NONE', #86, #301, #118 ) ;
#274 = DIRECTION ( 'NONE',  ( -1.000000000000000000, -0.0000000000000000000, -0.0000000000000000000 ) ) ;
#275 = VERTEX_POINT ( 'NONE', #206 ) ;
#276 = CARTESIAN_POINT ( 'NONE',  ( 5.000000000000000000, 0.0000000000000000000, 1.750000000000000000 ) ) ;
#277 = ORIENTED_EDGE ( 'NONE', *, *, #364, .T. ) ;
#278 = ADVANCED_FACE ( 'NONE', ( #244 ), #366, .T. ) ;
#279 = DIRECTION ( 'NONE',  ( -1.000000000000000000, -0.0000000000000000000, -0.0000000000000000000 ) ) ;
#280 = EDGE_CURVE ( 'NONE', #287, #336, #316, .T. ) ;
#281 = ADVANCED_FACE ( 'NONE', ( #381 ), #256, .T. ) ;
#282 = EDGE_LOOP ( 'NONE', ( #36, #193, #29, #56 ) ) ;
#283 =( NAMED_UNIT ( * ) PLANE_ANGLE_UNIT ( ) SI_UNIT ( $, .RADIAN. ) );
#284 = VERTEX_POINT ( 'NONE', #147 ) ;
#285 = DIRECTION ( 'NONE',  ( -1.000000000000000000, -0.0000000000000000000, -0.0000000000000000000 ) ) ;
#286 = AXIS2_PLACEMENT_3D ( 'NONE', #135, #255, #70 ) ;
#287 = VERTEX_POINT ( 'NONE', #327 ) ;
#288 = ORIENTED_EDGE ( 'NONE', *, *, #321, .F. ) ;
#289 = FACE_OUTER_BOUND ( 'NONE', #348, .T. ) ;
#290 = ORIENTED_EDGE ( 'NONE', *, *, #1, .F. ) ;
#291 = AXIS2_PLACEMENT_3D ( 'NONE', #116, #176, #388 ) ;
#292 = PLANE ( 'NONE',  #107 ) ;
#293 = EDGE_LOOP ( 'NONE', ( #210, #100 ) ) ;
#294 = DIRECTION ( 'NONE',  ( 0.0000000000000000000, 0.0000000000000000000, -1.000000000000000000 ) ) ;
#295 = CARTESIAN_POINT ( 'NONE',  ( 18.00000000000000000, 1.224646799147353000E-016, -0.9999999999999995600 ) ) ;
#296 = CARTESIAN_POINT ( 'NONE',  ( 0.0000000000000000000, 0.0000000000000000000, 0.0000000000000000000 ) ) ;
#297 = DIRECTION ( 'NONE',  ( -0.7071067811865493500, 8.659560562354910700E-017, -0.7071067811865456900 ) ) ;
#298 = VECTOR ( 'NONE', #233, 1000.000000000000000 ) ;
#299 = DIRECTION ( 'NONE',  ( 0.0000000000000000000, 0.0000000000000000000, 1.000000000000000000 ) ) ;
#300 = EDGE_CURVE ( 'NONE', #369, #179, #154, .T. ) ;
#301 = DIRECTION ( 'NONE',  ( -1.000000000000000000, -0.0000000000000000000, -0.0000000000000000000 ) ) ;
#302 = ORIENTED_EDGE ( 'NONE', *, *, #72, .T. ) ;
#303 = CIRCLE ( 'NONE', #382, 1.000000000000000000 ) ;
#304 = DIRECTION ( 'NONE',  ( -1.000000000000000000, -0.0000000000000000000, -0.0000000000000000000 ) ) ;
#305 = DIRECTION ( 'NONE',  ( -1.000000000000000000, -0.0000000000000000000, -0.0000000000000000000 ) ) ;
#306 = DIRECTION ( 'NONE',  ( 1.000000000000000000, 0.0000000000000000000, 0.0000000000000000000 ) ) ;
#307 = AXIS2_PLACEMENT_3D ( 'NONE', #296, #80, #69 ) ;
#308 = ORIENTED_EDGE ( 'NONE', *, *, #238, .T. ) ;
#309 = EDGE_CURVE ( 'NONE', #369, #224, #331, .T. ) ;
#310 = UNCERTAINTY_MEASURE_WITH_UNIT (LENGTH_MEASURE( 1.000000000000000100E-005 ), #203, 'distance_accuracy_value', 'NONE');
#311 = ADVANCED_FACE ( 'NONE', ( #289 ), #251, .T. ) ;
#312 = ORIENTED_EDGE ( 'NONE', *, *, #155, .T. ) ;
#313 = FACE_OUTER_BOUND ( 'NONE', #282, .T. ) ;
#314 = VERTEX_POINT ( 'NONE', #5 ) ;
#315 = DIRECTION ( 'NONE',  ( -1.000000000000000000, -0.0000000000000000000, -0.0000000000000000000 ) ) ;
#316 = LINE ( 'NONE', #204, #65 ) ;
#317 = EDGE_LOOP ( 'NONE', ( #221, #169 ) ) ;
#318 = AXIS2_PLACEMENT_3D ( 'NONE', #248, #23, #213 ) ;
#319 = DIRECTION ( 'NONE',  ( -1.000000000000000000, -0.0000000000000000000, -0.0000000000000000000 ) ) ;
#320 = DIRECTION ( 'NONE',  ( 1.000000000000000000, 0.0000000000000000000, 0.0000000000000000000 ) ) ;
#321 = EDGE_CURVE ( 'NONE', #130, #336, #371, .T. ) ;
#322 = LINE ( 'NONE', #265, #164 ) ;
#323 = FACE_OUTER_BOUND ( 'NONE', #376, .T. ) ;
#324 = AXIS2_PLACEMENT_3D ( 'NONE', #347, #319, #28 ) ;
#325 = FILL_AREA_STYLE_COLOUR ( '', #365 ) ;
#326 = EDGE_CURVE ( 'NONE', #275, #284, #83, .T. ) ;
#327 = CARTESIAN_POINT ( 'NONE',  ( 0.0000000000000000000, 1.102182119232617000E-016, 0.7999999999999986000 ) ) ;
#328 = DIRECTION ( 'NONE',  ( 0.0000000000000000000, 0.0000000000000000000, 1.000000000000000000 ) ) ;
#329 = CARTESIAN_POINT ( 'NONE',  ( 22.80000000000000100, 0.0000000000000000000, 0.0000000000000000000 ) ) ;
#330 = CARTESIAN_POINT ( 'NONE',  ( 22.99999999999999600, 0.0000000000000000000, 0.0000000000000000000 ) ) ;
#331 = LINE ( 'NONE', #355, #217 ) ;
#332 = DIRECTION ( 'NONE',  ( 0.0000000000000000000, 0.0000000000000000000, 1.000000000000000000 ) ) ;
#333 = FACE_OUTER_BOUND ( 'NONE', #207, .T. ) ;
#334 = CARTESIAN_POINT ( 'NONE',  ( 18.00000000000000000, 0.0000000000000000000, -1.750000000000000000 ) ) ;
#335 = AXIS2_PLACEMENT_3D ( 'NONE', #122, #306, #93 ) ;
#336 = VERTEX_POINT ( 'NONE', #191 ) ;
#337 = ADVANCED_FACE ( 'NONE', ( #218 ), #74, .T. ) ;
#338 = EDGE_CURVE ( 'NONE', #34, #130, #322, .T. ) ;
#339 = FACE_OUTER_BOUND ( 'NONE', #123, .T. ) ;
#340 = DIRECTION ( 'NONE',  ( -1.000000000000000000, -0.0000000000000000000, -0.0000000000000000000 ) ) ;
#341 = DIRECTION ( 'NONE',  ( 0.0000000000000000000, 0.0000000000000000000, 1.000000000000000000 ) ) ;
#342 = AXIS2_PLACEMENT_3D ( 'NONE', #7, #285, #33 ) ;
#343 = CARTESIAN_POINT ( 'NONE',  ( 0.0000000000000000000, 0.0000000000000000000, 1.750000000000000000 ) ) ;
#344 = ORIENTED_EDGE ( 'NONE', *, *, #155, .F. ) ;
#345 = EDGE_CURVE ( 'NONE', #180, #284, #241, .T. ) ;
#346 = APPLICATION_CONTEXT ( 'automotive_design' ) ;
#347 = CARTESIAN_POINT ( 'NONE',  ( 5.000000000000000000, 0.0000000000000000000, 0.0000000000000000000 ) ) ;
#348 = EDGE_LOOP ( 'NONE', ( #380, #247, #396, #267 ) ) ;
#349 = AXIS2_PLACEMENT_3D ( 'NONE', #208, #240, #51 ) ;
#350 = CARTESIAN_POINT ( 'NONE',  ( 0.0000000000000000000, 0.0000000000000000000, 0.9999999999999997800 ) ) ;
#351 = ORIENTED_EDGE ( 'NONE', *, *, #114, .T. ) ;
#352 = CARTESIAN_POINT ( 'NONE',  ( 0.0000000000000000000, 0.0000000000000000000, 1.000000000000000000 ) ) ;
#353 = ORIENTED_EDGE ( 'NONE', *, *, #364, .F. ) ;
#354 = PLANE ( 'NONE',  #291 ) ;
#355 = CARTESIAN_POINT ( 'NONE',  ( 22.80000000000000100, 0.0000000000000000000, 0.9999999999999997800 ) ) ;
#356 = DIRECTION ( 'NONE',  ( 0.0000000000000000000, 0.0000000000000000000, 1.000000000000000000 ) ) ;
#357 = EDGE_CURVE ( 'NONE', #314, #359, #390, .T. ) ;
#358 = CARTESIAN_POINT ( 'NONE',  ( 18.00000000000000000, 0.0000000000000000000, 0.0000000000000000000 ) ) ;
#359 = VERTEX_POINT ( 'NONE', #295 ) ;
#360 = CARTESIAN_POINT ( 'NONE',  ( 22.99999999999999600, 1.102182119232621100E-016, -0.8000000000000056000 ) ) ;
#361 = ORIENTED_EDGE ( 'NONE', *, *, #326, .T. ) ;
#362 = AXIS2_PLACEMENT_3D ( 'NONE', #101, #315, #132 ) ;
#363 = VERTEX_POINT ( 'NONE', #63 ) ;
#364 = EDGE_CURVE ( 'NONE', #20, #180, #64, .T. ) ;
#365 = COLOUR_RGB ( '',0.7921568627450980000, 0.8196078431372548800, 0.9333333333333333500 ) ;
#366 = CONICAL_SURFACE ( 'NONE', #163, 0.7999999999999986000, 0.7853981633974492800 ) ;
#367 = ADVANCED_FACE ( 'NONE', ( #313 ), #372, .T. ) ;
#368 = ORIENTED_EDGE ( 'NONE', *, *, #96, .F. ) ;
#369 = VERTEX_POINT ( 'NONE', #222 ) ;
#370 = CARTESIAN_POINT ( 'NONE',  ( 22.80000000000000100, 0.0000000000000000000, 0.0000000000000000000 ) ) ;
#371 = CIRCLE ( 'NONE', #286, 1.000000000000000000 ) ;
#372 = CONICAL_SURFACE ( 'NONE', #226, 0.7999999999999986000, 0.7853981633974492800 ) ;
#373 = CARTESIAN_POINT ( 'NONE',  ( 5.000000000000000000, 0.0000000000000000000, 0.0000000000000000000 ) ) ;
#374 = ORIENTED_EDGE ( 'NONE', *, *, #238, .F. ) ;
#375 = FILL_AREA_STYLE_COLOUR ( '', #212 ) ;
#376 = EDGE_LOOP ( 'NONE', ( #368, #258, #344, #272 ) ) ;
#377 = ORIENTED_EDGE ( 'NONE', *, *, #338, .F. ) ;
#378 = EDGE_CURVE ( 'NONE', #77, #359, #54, .T. ) ;
#379 = VECTOR ( 'NONE', #340, 1000.000000000000000 ) ;
#380 = ORIENTED_EDGE ( 'NONE', *, *, #385, .T. ) ;
#381 = FACE_OUTER_BOUND ( 'NONE', #394, .T. ) ;
#382 = AXIS2_PLACEMENT_3D ( 'NONE', #373, #189, #4 ) ;
#383 = DIRECTION ( 'NONE',  ( -1.000000000000000000, -0.0000000000000000000, -0.0000000000000000000 ) ) ;
#384 = SURFACE_STYLE_USAGE ( .BOTH. , #172 ) ;
#385 = EDGE_CURVE ( 'NONE', #16, #363, #303, .T. ) ;
#386 = DIRECTION ( 'NONE',  ( 0.7071067811865468000, 8.659560562354944000E-017, 0.7071067811865483500 ) ) ;
#387 = ORIENTED_EDGE ( 'NONE', *, *, #195, .T. ) ;
#388 = DIRECTION ( 'NONE',  ( 0.0000000000000000000, 0.0000000000000000000, -1.000000000000000000 ) ) ;
#389 = CARTESIAN_POINT ( 'NONE',  ( 0.0000000000000000000, 1.224646799147353000E-016, -0.9999999999999997800 ) ) ;
#390 = LINE ( 'NONE', #389, #228 ) ;
#391 = CIRCLE ( 'NONE', #37, 1.750000000000000000 ) ;
#392 = PLANE ( 'NONE',  #121 ) ;
#393 = FACE_OUTER_BOUND ( 'NONE', #245, .T. ) ;
#394 = EDGE_LOOP ( 'NONE', ( #146, #141, #11, #229 ) ) ;
#395 = AXIS2_PLACEMENT_3D ( 'NONE', #92, #274, #55 ) ;
#396 = ORIENTED_EDGE ( 'NONE', *, *, #321, .T. ) ;
#397 = DIRECTION ( 'NONE',  ( -1.000000000000000000, 0.0000000000000000000, -0.0000000000000000000 ) ) ;
#398 = CARTESIAN_POINT ( 'NONE',  ( 0.2000000000000009500, 1.224646799147353200E-016, -1.000000000000000000 ) ) ;
#399 = ADVANCED_FACE ( 'NONE', ( #142 ), #39, .T. ) ;
#400 = VECTOR ( 'NONE', #279, 1000.000000000000000 ) ;
ENDSEC;
END-ISO-10303-21;
