ISO-10303-21;
HEADER;
FILE_DESCRIPTION(('STEP AP203'),'1');
FILE_NAME('Plat.step','2018-05-31T06:10:32',(' '),(' '),'Spatial InterOp 3D',' ',' ');
FILE_SCHEMA(('CONFIG_CONTROL_DESIGN'));
ENDSEC;
DATA;
#1=DESIGN_CONTEXT('',#27,'design');
#2=APPLICATION_PROTOCOL_DEFINITION('INTERNATIONAL STANDARD','config_control_design',1994,#27);
#3=PRODUCT_CATEGORY_RELATIONSHIP('NONE','NONE',#28,#29);
#4=DATE_AND_TIME(#30,#31);
#5=DATE_TIME_ROLE('creation_date');
#6=DATE_TIME_ROLE('classification_date');
#7=PERSON_AND_ORGANIZATION_ROLE('creator');
#8=PERSON_AND_ORGANIZATION_ROLE('design_supplier');
#9=PERSON_AND_ORGANIZATION_ROLE('classification_officer');
#10=PERSON_AND_ORGANIZATION_ROLE('design_owner');
#11=APPROVAL_PERSON_ORGANIZATION(#32,#33,#34);
#12=APPROVAL_DATE_TIME(#4,#33);
#13=CC_DESIGN_APPROVAL(#33,(#35,#36,#37));
#14=CC_DESIGN_DATE_AND_TIME_ASSIGNMENT(#4,#5,(#37));
#15=CC_DESIGN_DATE_AND_TIME_ASSIGNMENT(#4,#6,(#35));
#16=CC_DESIGN_PERSON_AND_ORGANIZATION_ASSIGNMENT(#32,#10,(#38));
#17=CC_DESIGN_PERSON_AND_ORGANIZATION_ASSIGNMENT(#32,#7,(#37));
#18=CC_DESIGN_PERSON_AND_ORGANIZATION_ASSIGNMENT(#32,#7,(#36));
#19=CC_DESIGN_PERSON_AND_ORGANIZATION_ASSIGNMENT(#32,#8,(#36));
#20=CC_DESIGN_SECURITY_CLASSIFICATION(#35,(#36));
#21=CC_DESIGN_PERSON_AND_ORGANIZATION_ASSIGNMENT(#32,#9,(#35));
#22=SHAPE_DEFINITION_REPRESENTATION(#39,#40);
#23= (GEOMETRIC_REPRESENTATION_CONTEXT(3)GLOBAL_UNCERTAINTY_ASSIGNED_CONTEXT((#43))GLOBAL_UNIT_ASSIGNED_CONTEXT((#45,#46,#47))REPRESENTATION_CONTEXT('NONE','WORKSPACE'));
#27=APPLICATION_CONTEXT('CONFIGURATION CONTROLLED 3D DESIGNS OF MECHANICAL PARTS AND ASSEMBLIES');
#28=PRODUCT_CATEGORY('part','NONE');
#29=PRODUCT_RELATED_PRODUCT_CATEGORY('detail',' ',(#38));
#30=CALENDAR_DATE(2018,31,4);
#31=LOCAL_TIME(8,10,32.0,#49);
#32=PERSON_AND_ORGANIZATION(#50,#51);
#33=APPROVAL(#52,'SOLID MODEL');
#34=APPROVAL_ROLE('APPROVED');
#35=SECURITY_CLASSIFICATION('','',#53);
#36=PRODUCT_DEFINITION_FORMATION_WITH_SPECIFIED_SOURCE(' ','NONE',#38,.NOT_KNOWN.);
#37=PRODUCT_DEFINITION('NONE','NONE',#36,#1);
#38=PRODUCT('1','1','PART-1-DESC',(#54));
#39=PRODUCT_DEFINITION_SHAPE('NONE','NONE',#37);
#40=ADVANCED_BREP_SHAPE_REPRESENTATION('1',(#55,#56),#23);
#43=UNCERTAINTY_MEASURE_WITH_UNIT(LENGTH_MEASURE(0.001),#45,'','');
#45= (CONVERSION_BASED_UNIT('MILLIMETRE',#59)LENGTH_UNIT()NAMED_UNIT(#62));
#46= (NAMED_UNIT(#64)PLANE_ANGLE_UNIT()SI_UNIT($,.RADIAN.));
#47= (NAMED_UNIT(#64)SOLID_ANGLE_UNIT()SI_UNIT($,.STERADIAN.));
#49=COORDINATED_UNIVERSAL_TIME_OFFSET(1,0,.AHEAD.);
#50=PERSON('','UNSPECIFIED',$,$,$,$);
#51=ORGANIZATION('UNSPECIFIED','UNSPECIFIED','UNSPECIFIED');
#52=APPROVAL_STATUS('approved');
#53=SECURITY_CLASSIFICATION_LEVEL('unclassified');
#54=MECHANICAL_CONTEXT('',#27,'mechanical');
#55=MANIFOLD_SOLID_BREP('1',#70);
#56=AXIS2_PLACEMENT_3D('',#71,#72,#73);
#59=LENGTH_MEASURE_WITH_UNIT(LENGTH_MEASURE(1.0),#74);
#62=DIMENSIONAL_EXPONENTS(1.0,0.0,0.0,0.0,0.0,0.0,0.0);
#64=DIMENSIONAL_EXPONENTS(0.0,0.0,0.0,0.0,0.0,0.0,0.0);
#70=CLOSED_SHELL('',(#75,#76,#77,#78,#79,#80,#81,#82));
#71=CARTESIAN_POINT('',(0.0,0.0,0.0));
#72=DIRECTION('',(0.0,0.0,1.0));
#73=DIRECTION('',(1.0,0.0,0.0));
#74= (NAMED_UNIT(#62)LENGTH_UNIT()SI_UNIT(.MILLI.,.METRE.));
#75=ADVANCED_FACE('',(#84,#85,#86),#87,.F.);
#76=ADVANCED_FACE('',(#88,#89),#90,.F.);
#77=ADVANCED_FACE('',(#91,#92,#93),#94,.T.);
#78=ADVANCED_FACE('',(#95),#96,.T.);
#79=ADVANCED_FACE('',(#97),#98,.T.);
#80=ADVANCED_FACE('',(#99),#100,.T.);
#81=ADVANCED_FACE('',(#101),#102,.T.);
#82=ADVANCED_FACE('',(#103,#104),#105,.F.);
#84=FACE_BOUND('',#106,.T.);
#85=FACE_BOUND('',#107,.T.);
#86=FACE_OUTER_BOUND('',#108,.T.);
#87=PLANE('',#109);
#88=FACE_OUTER_BOUND('',#110,.T.);
#89=FACE_OUTER_BOUND('',#111,.T.);
#90=CYLINDRICAL_SURFACE('',#112,19.5);
#91=FACE_BOUND('',#113,.T.);
#92=FACE_BOUND('',#114,.T.);
#93=FACE_OUTER_BOUND('',#115,.T.);
#94=PLANE('',#116);
#95=FACE_OUTER_BOUND('',#117,.T.);
#96=PLANE('',#118);
#97=FACE_OUTER_BOUND('',#119,.T.);
#98=PLANE('',#120);
#99=FACE_OUTER_BOUND('',#121,.T.);
#100=PLANE('',#122);
#101=FACE_OUTER_BOUND('',#123,.T.);
#102=PLANE('',#124);
#103=FACE_OUTER_BOUND('',#125,.T.);
#104=FACE_OUTER_BOUND('',#126,.T.);
#105=CYLINDRICAL_SURFACE('',#127,19.5);
#106=EDGE_LOOP('',(#128));
#107=EDGE_LOOP('',(#129));
#108=EDGE_LOOP('',(#130,#131,#132,#133));
#109=AXIS2_PLACEMENT_3D('',#134,#135,#136);
#110=EDGE_LOOP('',(#137));
#111=EDGE_LOOP('',(#138));
#112=AXIS2_PLACEMENT_3D('',#139,#140,#141);
#113=EDGE_LOOP('',(#142));
#114=EDGE_LOOP('',(#143));
#115=EDGE_LOOP('',(#144,#145,#146,#147));
#116=AXIS2_PLACEMENT_3D('',#148,#149,#150);
#117=EDGE_LOOP('',(#151,#152,#153,#154));
#118=AXIS2_PLACEMENT_3D('',#155,#156,#157);
#119=EDGE_LOOP('',(#158,#159,#160,#161));
#120=AXIS2_PLACEMENT_3D('',#162,#163,#164);
#121=EDGE_LOOP('',(#165,#166,#167,#168));
#122=AXIS2_PLACEMENT_3D('',#169,#170,#171);
#123=EDGE_LOOP('',(#172,#173,#174,#175));
#124=AXIS2_PLACEMENT_3D('',#176,#177,#178);
#125=EDGE_LOOP('',(#179));
#126=EDGE_LOOP('',(#180));
#127=AXIS2_PLACEMENT_3D('',#181,#182,#183);
#128=ORIENTED_EDGE('',*,*,#184,.F.);
#129=ORIENTED_EDGE('',*,*,#185,.F.);
#130=ORIENTED_EDGE('',*,*,#186,.F.);
#131=ORIENTED_EDGE('',*,*,#187,.F.);
#132=ORIENTED_EDGE('',*,*,#188,.F.);
#133=ORIENTED_EDGE('',*,*,#189,.F.);
#134=CARTESIAN_POINT('',(0.0,0.0,0.0));
#135=DIRECTION('',(0.0,0.0,-1.0));
#136=DIRECTION('',(-1.0,0.0,0.0));
#137=ORIENTED_EDGE('',*,*,#185,.T.);
#138=ORIENTED_EDGE('',*,*,#190,.F.);
#139=CARTESIAN_POINT('',(-82.5,202.35,0.0));
#140=DIRECTION('',(0.0,0.0,-1.0));
#141=DIRECTION('',(-1.0,0.0,0.0));
#142=ORIENTED_EDGE('',*,*,#191,.T.);
#143=ORIENTED_EDGE('',*,*,#190,.T.);
#144=ORIENTED_EDGE('',*,*,#192,.T.);
#145=ORIENTED_EDGE('',*,*,#193,.T.);
#146=ORIENTED_EDGE('',*,*,#194,.T.);
#147=ORIENTED_EDGE('',*,*,#195,.T.);
#148=CARTESIAN_POINT('',(0.0,0.0,-60.0));
#149=DIRECTION('',(0.0,0.0,-1.0));
#150=DIRECTION('',(-1.0,0.0,0.0));
#151=ORIENTED_EDGE('',*,*,#196,.T.);
#152=ORIENTED_EDGE('',*,*,#188,.T.);
#153=ORIENTED_EDGE('',*,*,#197,.F.);
#154=ORIENTED_EDGE('',*,*,#194,.F.);
#155=CARTESIAN_POINT('',(-165.0,300.0,0.0));
#156=DIRECTION('',(-0.0,1.0,0.0));
#157=DIRECTION('',(1.0,0.0,0.0));
#158=ORIENTED_EDGE('',*,*,#197,.T.);
#159=ORIENTED_EDGE('',*,*,#187,.T.);
#160=ORIENTED_EDGE('',*,*,#198,.F.);
#161=ORIENTED_EDGE('',*,*,#195,.F.);
#162=CARTESIAN_POINT('',(0.0,300.0,0.0));
#163=DIRECTION('',(1.0,0.0,0.0));
#164=DIRECTION('',(0.0,-1.0,0.0));
#165=ORIENTED_EDGE('',*,*,#198,.T.);
#166=ORIENTED_EDGE('',*,*,#186,.T.);
#167=ORIENTED_EDGE('',*,*,#199,.F.);
#168=ORIENTED_EDGE('',*,*,#192,.F.);
#169=CARTESIAN_POINT('',(0.0,0.0,0.0));
#170=DIRECTION('',(0.0,-1.0,0.0));
#171=DIRECTION('',(-1.0,0.0,0.0));
#172=ORIENTED_EDGE('',*,*,#193,.F.);
#173=ORIENTED_EDGE('',*,*,#199,.T.);
#174=ORIENTED_EDGE('',*,*,#189,.T.);
#175=ORIENTED_EDGE('',*,*,#196,.F.);
#176=CARTESIAN_POINT('',(-165.0,0.0,0.0));
#177=DIRECTION('',(-1.0,0.0,0.0));
#178=DIRECTION('',(0.0,1.0,0.0));
#179=ORIENTED_EDGE('',*,*,#184,.T.);
#180=ORIENTED_EDGE('',*,*,#191,.F.);
#181=CARTESIAN_POINT('',(-82.5,97.6,0.0));
#182=DIRECTION('',(0.0,0.0,-1.0));
#183=DIRECTION('',(-1.0,0.0,0.0));
#184=EDGE_CURVE('',#200,#200,#201,.T.);
#185=EDGE_CURVE('',#202,#202,#203,.T.);
#186=EDGE_CURVE('',#204,#205,#206,.T.);
#187=EDGE_CURVE('',#207,#204,#208,.T.);
#188=EDGE_CURVE('',#209,#207,#210,.T.);
#189=EDGE_CURVE('',#205,#209,#211,.T.);
#190=EDGE_CURVE('',#212,#212,#213,.T.);
#191=EDGE_CURVE('',#214,#214,#215,.T.);
#192=EDGE_CURVE('',#216,#217,#218,.T.);
#193=EDGE_CURVE('',#217,#219,#220,.T.);
#194=EDGE_CURVE('',#219,#221,#222,.F.);
#195=EDGE_CURVE('',#221,#216,#223,.F.);
#196=EDGE_CURVE('',#219,#209,#224,.F.);
#197=EDGE_CURVE('',#221,#207,#225,.F.);
#198=EDGE_CURVE('',#216,#204,#226,.F.);
#199=EDGE_CURVE('',#217,#205,#227,.F.);
#200=VERTEX_POINT('',#228);
#201=CIRCLE('',#229,19.5);
#202=VERTEX_POINT('',#230);
#203=CIRCLE('',#231,19.5);
#204=VERTEX_POINT('',#232);
#205=VERTEX_POINT('',#233);
#206=LINE('',#234,#235);
#207=VERTEX_POINT('',#236);
#208=LINE('',#237,#238);
#209=VERTEX_POINT('',#239);
#210=LINE('',#240,#241);
#211=LINE('',#242,#243);
#212=VERTEX_POINT('',#244);
#213=CIRCLE('',#245,19.5);
#214=VERTEX_POINT('',#246);
#215=CIRCLE('',#247,19.5);
#216=VERTEX_POINT('',#248);
#217=VERTEX_POINT('',#249);
#218=LINE('',#250,#251);
#219=VERTEX_POINT('',#252);
#220=LINE('',#253,#254);
#221=VERTEX_POINT('',#255);
#222=LINE('',#256,#257);
#223=LINE('',#258,#259);
#224=LINE('',#260,#261);
#225=LINE('',#262,#263);
#226=LINE('',#264,#265);
#227=LINE('',#266,#267);
#228=CARTESIAN_POINT('',(-63.0,97.6,0.0));
#229=AXIS2_PLACEMENT_3D('',#268,#269,#270);
#230=CARTESIAN_POINT('',(-63.0,202.35,0.0));
#231=AXIS2_PLACEMENT_3D('',#271,#272,#273);
#232=CARTESIAN_POINT('',(0.0,0.0,0.0));
#233=CARTESIAN_POINT('',(-165.0,0.0,0.0));
#234=CARTESIAN_POINT('',(0.0,0.0,0.0));
#235=VECTOR('',#274,1.0);
#236=CARTESIAN_POINT('',(0.0,300.0,0.0));
#237=CARTESIAN_POINT('',(0.0,300.0,0.0));
#238=VECTOR('',#275,1.0);
#239=CARTESIAN_POINT('',(-165.0,300.0,0.0));
#240=CARTESIAN_POINT('',(-165.0,300.0,0.0));
#241=VECTOR('',#276,1.0);
#242=CARTESIAN_POINT('',(-165.0,0.0,0.0));
#243=VECTOR('',#277,1.0);
#244=CARTESIAN_POINT('',(-63.0,202.35,-60.0));
#245=AXIS2_PLACEMENT_3D('',#278,#279,#280);
#246=CARTESIAN_POINT('',(-63.0,97.6,-60.0));
#247=AXIS2_PLACEMENT_3D('',#281,#282,#283);
#248=CARTESIAN_POINT('',(0.0,0.0,-60.0));
#249=CARTESIAN_POINT('',(-165.0,0.0,-60.0));
#250=CARTESIAN_POINT('',(0.0,0.0,-60.0));
#251=VECTOR('',#284,1.0);
#252=CARTESIAN_POINT('',(-165.0,300.0,-60.0));
#253=CARTESIAN_POINT('',(-165.0,0.0,-60.0));
#254=VECTOR('',#285,1.0);
#255=CARTESIAN_POINT('',(0.0,300.0,-60.0));
#256=CARTESIAN_POINT('',(0.0,300.0,-60.0));
#257=VECTOR('',#286,1.0);
#258=CARTESIAN_POINT('',(0.0,0.0,-60.0));
#259=VECTOR('',#287,1.0);
#260=CARTESIAN_POINT('',(-165.0,300.0,0.0));
#261=VECTOR('',#288,1.0);
#262=CARTESIAN_POINT('',(0.0,300.0,0.0));
#263=VECTOR('',#289,1.0);
#264=CARTESIAN_POINT('',(0.0,0.0,0.0));
#265=VECTOR('',#290,1.0);
#266=CARTESIAN_POINT('',(-165.0,0.0,0.0));
#267=VECTOR('',#291,1.0);
#268=CARTESIAN_POINT('',(-82.5,97.6,0.0));
#269=DIRECTION('',(0.0,0.0,1.0));
#270=DIRECTION('',(1.0,0.0,0.0));
#271=CARTESIAN_POINT('',(-82.5,202.35,0.0));
#272=DIRECTION('',(0.0,0.0,1.0));
#273=DIRECTION('',(1.0,0.0,0.0));
#274=DIRECTION('',(-1.0,0.0,0.0));
#275=DIRECTION('',(0.0,-1.0,0.0));
#276=DIRECTION('',(1.0,0.0,0.0));
#277=DIRECTION('',(0.0,1.0,0.0));
#278=CARTESIAN_POINT('',(-82.5,202.35,-60.0));
#279=DIRECTION('',(0.0,0.0,1.0));
#280=DIRECTION('',(1.0,0.0,0.0));
#281=CARTESIAN_POINT('',(-82.5,97.6,-60.0));
#282=DIRECTION('',(0.0,0.0,1.0));
#283=DIRECTION('',(1.0,0.0,0.0));
#284=DIRECTION('',(-1.0,0.0,0.0));
#285=DIRECTION('',(0.0,1.0,0.0));
#286=DIRECTION('',(-1.0,0.0,0.0));
#287=DIRECTION('',(0.0,1.0,0.0));
#288=DIRECTION('',(0.0,0.0,-1.0));
#289=DIRECTION('',(0.0,0.0,-1.0));
#290=DIRECTION('',(0.0,0.0,-1.0));
#291=DIRECTION('',(0.0,0.0,-1.0));
ENDSEC;
END-ISO-10303-21;
