ISO-10303-21;
HEADER;
FILE_DESCRIPTION(('CATIA V5 STEP Exchange'),'2;1');

FILE_NAME('D:\\Utilisateur\\Documents\\Cours IPSA\\A\X2\00E9\X0\ro 2\\A\X2\00E9\X0\roIpsa\\Trident 2\\CU Shayane\\Bielle servo.stp','2018-06-12T20:32:02+00:00',('none'),('none'),'CATIA Version 5 Release 17 (IN-10)','CATIA V5 STEP AP203','none');

FILE_SCHEMA(('CONFIG_CONTROL_DESIGN'));

ENDSEC;
/* file written by CATIA V5R17 */
DATA;
#5=PRODUCT('Bielle servo','','',(#2)) ;
#1=APPLICATION_CONTEXT('configuration controlled 3D design of mechanical parts and assemblies') ;
#14=PRODUCT_DEFINITION(' ',' ',#6,#3) ;
#16=SECURITY_CLASSIFICATION(' ',' ',#15) ;
#15=SECURITY_CLASSIFICATION_LEVEL('unclassified') ;
#47=CARTESIAN_POINT(' ',(0.,0.,0.)) ;
#52=CARTESIAN_POINT('Axis2P3D Location',(1.5,0.,0.)) ;
#57=CARTESIAN_POINT('Line Origine',(1.5,2.44921270764E-016,4.)) ;
#61=CARTESIAN_POINT('Vertex',(0.,2.44921270764E-016,4.)) ;
#63=CARTESIAN_POINT('Vertex',(3.,2.44921270764E-016,4.)) ;
#66=CARTESIAN_POINT('Axis2P3D Location',(0.,0.,0.)) ;
#70=CARTESIAN_POINT('Vertex',(0.,-7.34763812293E-016,-4.)) ;
#73=CARTESIAN_POINT('Line Origine',(1.5,-7.34763812293E-016,-4.)) ;
#77=CARTESIAN_POINT('Vertex',(3.,-7.34763812293E-016,-4.)) ;
#80=CARTESIAN_POINT('Axis2P3D Location',(3.,0.,0.)) ;
#92=CARTESIAN_POINT('Axis2P3D Location',(0.,22.,-4.)) ;
#97=CARTESIAN_POINT('Line Origine',(0.,11.,-4.)) ;
#101=CARTESIAN_POINT('Vertex',(0.,22.,-4.)) ;
#104=CARTESIAN_POINT('Line Origine',(1.5,22.,-4.)) ;
#108=CARTESIAN_POINT('Vertex',(3.,22.,-4.)) ;
#111=CARTESIAN_POINT('Line Origine',(3.,11.,-4.)) ;
#123=CARTESIAN_POINT('Axis2P3D Location',(1.5,22.,2.69413397841E-015)) ;
#128=CARTESIAN_POINT('Axis2P3D Location',(0.,22.,2.69413397841E-015)) ;
#132=CARTESIAN_POINT('Vertex',(0.,22.,4.)) ;
#135=CARTESIAN_POINT('Line Origine',(1.5,22.,4.)) ;
#139=CARTESIAN_POINT('Vertex',(3.,22.,4.)) ;
#142=CARTESIAN_POINT('Axis2P3D Location',(3.,22.,2.69413397841E-015)) ;
#154=CARTESIAN_POINT('Axis2P3D Location',(0.,0.,4.)) ;
#159=CARTESIAN_POINT('Line Origine',(0.,11.,4.)) ;
#164=CARTESIAN_POINT('Line Origine',(3.,11.,4.)) ;
#176=CARTESIAN_POINT('Axis2P3D Location',(1.5,0.,0.)) ;
#181=CARTESIAN_POINT('Axis2P3D Location',(3.,0.,0.)) ;
#185=CARTESIAN_POINT('Vertex',(3.,-2.25,2.7553642961E-016)) ;
#187=CARTESIAN_POINT('Vertex',(3.,2.25,0.)) ;
#190=CARTESIAN_POINT('Line Origine',(1.5,2.25,-5.5107285922E-016)) ;
#194=CARTESIAN_POINT('Vertex',(0.,2.25,0.)) ;
#197=CARTESIAN_POINT('Axis2P3D Location',(0.,0.,0.)) ;
#201=CARTESIAN_POINT('Vertex',(0.,-2.25,2.7553642961E-016)) ;
#204=CARTESIAN_POINT('Line Origine',(1.5,-2.25,2.7553642961E-016)) ;
#216=CARTESIAN_POINT('Axis2P3D Location',(3.,0.,0.)) ;
#221=CARTESIAN_POINT('Axis2P3D Location',(0.,0.,0.)) ;
#233=CARTESIAN_POINT('Axis2P3D Location',(0.,22.,-2.)) ;
#238=CARTESIAN_POINT('Line Origine',(3.,18.5,-2.)) ;
#242=CARTESIAN_POINT('Vertex',(3.,15.,-2.)) ;
#244=CARTESIAN_POINT('Vertex',(3.,22.,-2.)) ;
#247=CARTESIAN_POINT('Line Origine',(1.5,22.,-2.)) ;
#251=CARTESIAN_POINT('Vertex',(0.,22.,-2.)) ;
#254=CARTESIAN_POINT('Line Origine',(0.,18.5,-2.)) ;
#258=CARTESIAN_POINT('Vertex',(0.,15.,-2.)) ;
#261=CARTESIAN_POINT('Line Origine',(1.5,15.,-2.)) ;
#273=CARTESIAN_POINT('Axis2P3D Location',(1.5,15.,-3.79627969685E-015)) ;
#278=CARTESIAN_POINT('Axis2P3D Location',(3.,15.,-3.79627969685E-015)) ;
#282=CARTESIAN_POINT('Vertex',(3.,15.,2.)) ;
#285=CARTESIAN_POINT('Axis2P3D Location',(0.,15.,-3.79627969685E-015)) ;
#289=CARTESIAN_POINT('Vertex',(0.,15.,2.)) ;
#292=CARTESIAN_POINT('Line Origine',(1.5,15.,2.)) ;
#304=CARTESIAN_POINT('Axis2P3D Location',(0.,15.,2.)) ;
#309=CARTESIAN_POINT('Line Origine',(3.,18.5,2.)) ;
#313=CARTESIAN_POINT('Vertex',(3.,22.,2.)) ;
#316=CARTESIAN_POINT('Line Origine',(0.,18.5,2.)) ;
#320=CARTESIAN_POINT('Vertex',(0.,22.,2.)) ;
#323=CARTESIAN_POINT('Line Origine',(1.5,22.,2.)) ;
#335=CARTESIAN_POINT('Axis2P3D Location',(1.5,22.,6.36795303988E-015)) ;
#340=CARTESIAN_POINT('Axis2P3D Location',(3.,22.,6.36795303988E-015)) ;
#345=CARTESIAN_POINT('Axis2P3D Location',(0.,22.,6.36795303988E-015)) ;
#357=CARTESIAN_POINT('Axis2P3D Location',(0.,0.,0.)) ;
#379=CARTESIAN_POINT('Axis2P3D Location',(3.,0.,0.)) ;
#53=DIRECTION('Axis2P3D Direction',(1.,0.,0.)) ;
#54=DIRECTION('Axis2P3D XDirection',(0.,6.12303176911E-017,1.)) ;
#58=DIRECTION('Vector Direction',(1.,0.,0.)) ;
#67=DIRECTION('Axis2P3D Direction',(1.,0.,0.)) ;
#74=DIRECTION('Vector Direction',(1.,0.,0.)) ;
#81=DIRECTION('Axis2P3D Direction',(1.,0.,0.)) ;
#93=DIRECTION('Axis2P3D Direction',(0.,0.,1.)) ;
#94=DIRECTION('Axis2P3D XDirection',(0.,-1.,0.)) ;
#98=DIRECTION('Vector Direction',(0.,-1.,0.)) ;
#105=DIRECTION('Vector Direction',(1.,0.,0.)) ;
#112=DIRECTION('Vector Direction',(0.,-1.,0.)) ;
#124=DIRECTION('Axis2P3D Direction',(1.,0.,0.)) ;
#125=DIRECTION('Axis2P3D XDirection',(0.,-1.83690953073E-016,-1.)) ;
#129=DIRECTION('Axis2P3D Direction',(1.,0.,0.)) ;
#136=DIRECTION('Vector Direction',(1.,0.,0.)) ;
#143=DIRECTION('Axis2P3D Direction',(1.,0.,0.)) ;
#155=DIRECTION('Axis2P3D Direction',(0.,0.,-1.)) ;
#156=DIRECTION('Axis2P3D XDirection',(0.,1.,0.)) ;
#160=DIRECTION('Vector Direction',(0.,1.,0.)) ;
#165=DIRECTION('Vector Direction',(0.,1.,0.)) ;
#177=DIRECTION('Axis2P3D Direction',(1.,0.,0.)) ;
#178=DIRECTION('Axis2P3D XDirection',(0.,1.,0.)) ;
#182=DIRECTION('Axis2P3D Direction',(1.,0.,0.)) ;
#191=DIRECTION('Vector Direction',(1.,0.,0.)) ;
#198=DIRECTION('Axis2P3D Direction',(1.,0.,0.)) ;
#205=DIRECTION('Vector Direction',(1.,0.,0.)) ;
#217=DIRECTION('Axis2P3D Direction',(1.,0.,0.)) ;
#222=DIRECTION('Axis2P3D Direction',(1.,0.,0.)) ;
#234=DIRECTION('Axis2P3D Direction',(0.,0.,1.)) ;
#235=DIRECTION('Axis2P3D XDirection',(0.,-1.,0.)) ;
#239=DIRECTION('Vector Direction',(0.,-1.,0.)) ;
#248=DIRECTION('Vector Direction',(1.,0.,0.)) ;
#255=DIRECTION('Vector Direction',(0.,-1.,0.)) ;
#262=DIRECTION('Vector Direction',(1.,0.,0.)) ;
#274=DIRECTION('Axis2P3D Direction',(1.,0.,0.)) ;
#275=DIRECTION('Axis2P3D XDirection',(0.,6.12303176911E-017,1.)) ;
#279=DIRECTION('Axis2P3D Direction',(1.,0.,0.)) ;
#286=DIRECTION('Axis2P3D Direction',(1.,0.,0.)) ;
#293=DIRECTION('Vector Direction',(1.,0.,0.)) ;
#305=DIRECTION('Axis2P3D Direction',(0.,0.,-1.)) ;
#306=DIRECTION('Axis2P3D XDirection',(0.,1.,0.)) ;
#310=DIRECTION('Vector Direction',(0.,1.,0.)) ;
#317=DIRECTION('Vector Direction',(0.,1.,0.)) ;
#324=DIRECTION('Vector Direction',(1.,0.,0.)) ;
#336=DIRECTION('Axis2P3D Direction',(1.,0.,0.)) ;
#337=DIRECTION('Axis2P3D XDirection',(0.,-1.83690953073E-016,-1.)) ;
#341=DIRECTION('Axis2P3D Direction',(1.,0.,0.)) ;
#346=DIRECTION('Axis2P3D Direction',(1.,0.,0.)) ;
#358=DIRECTION('Axis2P3D Direction',(1.,0.,0.)) ;
#359=DIRECTION('Axis2P3D XDirection',(0.,1.,0.)) ;
#380=DIRECTION('Axis2P3D Direction',(1.,0.,0.)) ;
#381=DIRECTION('Axis2P3D XDirection',(0.,1.,0.)) ;
#48=AXIS2_PLACEMENT_3D(' ',#47,$,$) ;
#55=AXIS2_PLACEMENT_3D('Cylinder Axis2P3D',#52,#53,#54) ;
#68=AXIS2_PLACEMENT_3D('Circle Axis2P3D',#66,#67,$) ;
#82=AXIS2_PLACEMENT_3D('Circle Axis2P3D',#80,#81,$) ;
#95=AXIS2_PLACEMENT_3D('Plane Axis2P3D',#92,#93,#94) ;
#126=AXIS2_PLACEMENT_3D('Cylinder Axis2P3D',#123,#124,#125) ;
#130=AXIS2_PLACEMENT_3D('Circle Axis2P3D',#128,#129,$) ;
#144=AXIS2_PLACEMENT_3D('Circle Axis2P3D',#142,#143,$) ;
#157=AXIS2_PLACEMENT_3D('Plane Axis2P3D',#154,#155,#156) ;
#179=AXIS2_PLACEMENT_3D('Cylinder Axis2P3D',#176,#177,#178) ;
#183=AXIS2_PLACEMENT_3D('Circle Axis2P3D',#181,#182,$) ;
#199=AXIS2_PLACEMENT_3D('Circle Axis2P3D',#197,#198,$) ;
#218=AXIS2_PLACEMENT_3D('Circle Axis2P3D',#216,#217,$) ;
#223=AXIS2_PLACEMENT_3D('Circle Axis2P3D',#221,#222,$) ;
#236=AXIS2_PLACEMENT_3D('Plane Axis2P3D',#233,#234,#235) ;
#276=AXIS2_PLACEMENT_3D('Cylinder Axis2P3D',#273,#274,#275) ;
#280=AXIS2_PLACEMENT_3D('Circle Axis2P3D',#278,#279,$) ;
#287=AXIS2_PLACEMENT_3D('Circle Axis2P3D',#285,#286,$) ;
#307=AXIS2_PLACEMENT_3D('Plane Axis2P3D',#304,#305,#306) ;
#338=AXIS2_PLACEMENT_3D('Cylinder Axis2P3D',#335,#336,#337) ;
#342=AXIS2_PLACEMENT_3D('Circle Axis2P3D',#340,#341,$) ;
#347=AXIS2_PLACEMENT_3D('Circle Axis2P3D',#345,#346,$) ;
#360=AXIS2_PLACEMENT_3D('Plane Axis2P3D',#357,#358,#359) ;
#382=AXIS2_PLACEMENT_3D('Plane Axis2P3D',#379,#380,#381) ;
#40=PRODUCT_DEFINITION_SHAPE(' ',' ',#14) ;
#31=APPROVAL_PERSON_ORGANIZATION(#25,#21,#19) ;
#25=PERSON_AND_ORGANIZATION(#22,#23) ;
#22=PERSON(' ',' ',' ',$,$,$) ;
#23=ORGANIZATION(' ',' ',' ') ;
#21=APPROVAL(#20,' ') ;
#20=APPROVAL_STATUS('not_yet_approved') ;
#19=APPROVAL_ROLE('APPROVER') ;
#13=DATE_AND_TIME(#11,#12) ;
#12=LOCAL_TIME(22,32,2.,#10) ;
#10=COORDINATED_UNIVERSAL_TIME_OFFSET(0,0,.AHEAD.) ;
#86=ORIENTED_EDGE('',*,*,#65,.F.) ;
#87=ORIENTED_EDGE('',*,*,#72,.T.) ;
#88=ORIENTED_EDGE('',*,*,#79,.T.) ;
#89=ORIENTED_EDGE('',*,*,#84,.F.) ;
#117=ORIENTED_EDGE('',*,*,#79,.F.) ;
#118=ORIENTED_EDGE('',*,*,#103,.T.) ;
#119=ORIENTED_EDGE('',*,*,#110,.T.) ;
#120=ORIENTED_EDGE('',*,*,#115,.F.) ;
#148=ORIENTED_EDGE('',*,*,#110,.F.) ;
#149=ORIENTED_EDGE('',*,*,#134,.T.) ;
#150=ORIENTED_EDGE('',*,*,#141,.T.) ;
#151=ORIENTED_EDGE('',*,*,#146,.F.) ;
#170=ORIENTED_EDGE('',*,*,#141,.F.) ;
#171=ORIENTED_EDGE('',*,*,#163,.T.) ;
#172=ORIENTED_EDGE('',*,*,#65,.T.) ;
#173=ORIENTED_EDGE('',*,*,#168,.F.) ;
#210=ORIENTED_EDGE('',*,*,#189,.T.) ;
#211=ORIENTED_EDGE('',*,*,#196,.F.) ;
#212=ORIENTED_EDGE('',*,*,#203,.F.) ;
#213=ORIENTED_EDGE('',*,*,#208,.T.) ;
#227=ORIENTED_EDGE('',*,*,#220,.T.) ;
#228=ORIENTED_EDGE('',*,*,#208,.F.) ;
#229=ORIENTED_EDGE('',*,*,#225,.F.) ;
#230=ORIENTED_EDGE('',*,*,#196,.T.) ;
#267=ORIENTED_EDGE('',*,*,#246,.T.) ;
#268=ORIENTED_EDGE('',*,*,#253,.F.) ;
#269=ORIENTED_EDGE('',*,*,#260,.F.) ;
#270=ORIENTED_EDGE('',*,*,#265,.T.) ;
#298=ORIENTED_EDGE('',*,*,#284,.T.) ;
#299=ORIENTED_EDGE('',*,*,#265,.F.) ;
#300=ORIENTED_EDGE('',*,*,#291,.F.) ;
#301=ORIENTED_EDGE('',*,*,#296,.T.) ;
#329=ORIENTED_EDGE('',*,*,#315,.T.) ;
#330=ORIENTED_EDGE('',*,*,#296,.F.) ;
#331=ORIENTED_EDGE('',*,*,#322,.F.) ;
#332=ORIENTED_EDGE('',*,*,#327,.T.) ;
#351=ORIENTED_EDGE('',*,*,#344,.T.) ;
#352=ORIENTED_EDGE('',*,*,#327,.F.) ;
#353=ORIENTED_EDGE('',*,*,#349,.F.) ;
#354=ORIENTED_EDGE('',*,*,#253,.T.) ;
#363=ORIENTED_EDGE('',*,*,#163,.F.) ;
#364=ORIENTED_EDGE('',*,*,#134,.F.) ;
#365=ORIENTED_EDGE('',*,*,#103,.F.) ;
#366=ORIENTED_EDGE('',*,*,#72,.F.) ;
#369=ORIENTED_EDGE('',*,*,#225,.T.) ;
#370=ORIENTED_EDGE('',*,*,#203,.T.) ;
#373=ORIENTED_EDGE('',*,*,#349,.T.) ;
#374=ORIENTED_EDGE('',*,*,#322,.T.) ;
#375=ORIENTED_EDGE('',*,*,#291,.T.) ;
#376=ORIENTED_EDGE('',*,*,#260,.T.) ;
#385=ORIENTED_EDGE('',*,*,#84,.T.) ;
#386=ORIENTED_EDGE('',*,*,#115,.T.) ;
#387=ORIENTED_EDGE('',*,*,#146,.T.) ;
#388=ORIENTED_EDGE('',*,*,#168,.T.) ;
#391=ORIENTED_EDGE('',*,*,#189,.F.) ;
#392=ORIENTED_EDGE('',*,*,#220,.F.) ;
#395=ORIENTED_EDGE('',*,*,#246,.F.) ;
#396=ORIENTED_EDGE('',*,*,#284,.F.) ;
#397=ORIENTED_EDGE('',*,*,#315,.F.) ;
#398=ORIENTED_EDGE('',*,*,#344,.F.) ;
#371=FACE_BOUND('',#368,.T.) ;
#377=FACE_BOUND('',#372,.T.) ;
#393=FACE_BOUND('',#390,.T.) ;
#399=FACE_BOUND('',#394,.T.) ;
#51=CLOSED_SHELL('Closed Shell',(#91,#122,#153,#175,#215,#232,#272,#303,#334,#356,#378,#400)) ;
#59=VECTOR('Line Direction',#58,1.) ;
#75=VECTOR('Line Direction',#74,1.) ;
#99=VECTOR('Line Direction',#98,1.) ;
#106=VECTOR('Line Direction',#105,1.) ;
#113=VECTOR('Line Direction',#112,1.) ;
#137=VECTOR('Line Direction',#136,1.) ;
#161=VECTOR('Line Direction',#160,1.) ;
#166=VECTOR('Line Direction',#165,1.) ;
#192=VECTOR('Line Direction',#191,1.) ;
#206=VECTOR('Line Direction',#205,1.) ;
#240=VECTOR('Line Direction',#239,1.) ;
#249=VECTOR('Line Direction',#248,1.) ;
#256=VECTOR('Line Direction',#255,1.) ;
#263=VECTOR('Line Direction',#262,1.) ;
#294=VECTOR('Line Direction',#293,1.) ;
#311=VECTOR('Line Direction',#310,1.) ;
#318=VECTOR('Line Direction',#317,1.) ;
#325=VECTOR('Line Direction',#324,1.) ;
#402=ADVANCED_BREP_SHAPE_REPRESENTATION('NONE',(#401),#46) ;
#49=SHAPE_REPRESENTATION(' ',(#48),#46) ;
#91=ADVANCED_FACE('',(#90),#56,.T.) ;
#122=ADVANCED_FACE('',(#121),#96,.F.) ;
#153=ADVANCED_FACE('',(#152),#127,.T.) ;
#175=ADVANCED_FACE('',(#174),#158,.F.) ;
#215=ADVANCED_FACE('',(#214),#180,.F.) ;
#232=ADVANCED_FACE('',(#231),#180,.F.) ;
#272=ADVANCED_FACE('',(#271),#237,.T.) ;
#303=ADVANCED_FACE('',(#302),#277,.F.) ;
#334=ADVANCED_FACE('',(#333),#308,.T.) ;
#356=ADVANCED_FACE('',(#355),#339,.F.) ;
#378=ADVANCED_FACE('',(#367,#371,#377),#361,.F.) ;
#400=ADVANCED_FACE('',(#389,#393,#399),#383,.T.) ;
#4=APPLICATION_PROTOCOL_DEFINITION('international standard','config_control_design',1994,#1) ;
#32=APPROVAL_DATE_TIME(#13,#21) ;
#401=MANIFOLD_SOLID_BREP('Corps principal',#51) ;
#11=CALENDAR_DATE(2018,12,6) ;
#30=CC_DESIGN_APPROVAL(#21,(#16,#6,#14)) ;
#18=CC_DESIGN_DATE_AND_TIME_ASSIGNMENT(#13,#17,(#16)) ;
#29=CC_DESIGN_DATE_AND_TIME_ASSIGNMENT(#13,#28,(#14)) ;
#17=DATE_TIME_ROLE('classification_date') ;
#28=DATE_TIME_ROLE('creation_date') ;
#27=CC_DESIGN_PERSON_AND_ORGANIZATION_ASSIGNMENT(#25,#26,(#16)) ;
#33=CC_DESIGN_PERSON_AND_ORGANIZATION_ASSIGNMENT(#25,#34,(#6)) ;
#35=CC_DESIGN_PERSON_AND_ORGANIZATION_ASSIGNMENT(#25,#36,(#6,#14)) ;
#37=CC_DESIGN_PERSON_AND_ORGANIZATION_ASSIGNMENT(#25,#38,(#5)) ;
#26=PERSON_AND_ORGANIZATION_ROLE('classification_officer') ;
#34=PERSON_AND_ORGANIZATION_ROLE('design_supplier') ;
#36=PERSON_AND_ORGANIZATION_ROLE('creator') ;
#38=PERSON_AND_ORGANIZATION_ROLE('design_owner') ;
#39=CC_DESIGN_SECURITY_CLASSIFICATION(#16,(#6)) ;
#69=CIRCLE('generated circle',#68,4.) ;
#83=CIRCLE('generated circle',#82,4.) ;
#131=CIRCLE('generated circle',#130,4.) ;
#145=CIRCLE('generated circle',#144,4.) ;
#184=CIRCLE('generated circle',#183,2.25) ;
#200=CIRCLE('generated circle',#199,2.25) ;
#219=CIRCLE('generated circle',#218,2.25) ;
#224=CIRCLE('generated circle',#223,2.25) ;
#281=CIRCLE('generated circle',#280,2.) ;
#288=CIRCLE('generated circle',#287,2.) ;
#343=CIRCLE('generated circle',#342,2.) ;
#348=CIRCLE('generated circle',#347,2.) ;
#403=SHAPE_REPRESENTATION_RELATIONSHIP(' ',' ',#49,#402) ;
#56=CYLINDRICAL_SURFACE('generated cylinder',#55,4.) ;
#127=CYLINDRICAL_SURFACE('generated cylinder',#126,4.) ;
#180=CYLINDRICAL_SURFACE('generated cylinder',#179,2.25) ;
#277=CYLINDRICAL_SURFACE('generated cylinder',#276,2.) ;
#339=CYLINDRICAL_SURFACE('generated cylinder',#338,2.) ;
#3=DESIGN_CONTEXT(' ',#1,'design') ;
#65=EDGE_CURVE('',#62,#64,#60,.T.) ;
#72=EDGE_CURVE('',#62,#71,#69,.T.) ;
#79=EDGE_CURVE('',#71,#78,#76,.T.) ;
#84=EDGE_CURVE('',#64,#78,#83,.T.) ;
#103=EDGE_CURVE('',#71,#102,#100,.F.) ;
#110=EDGE_CURVE('',#102,#109,#107,.T.) ;
#115=EDGE_CURVE('',#78,#109,#114,.F.) ;
#134=EDGE_CURVE('',#102,#133,#131,.T.) ;
#141=EDGE_CURVE('',#133,#140,#138,.T.) ;
#146=EDGE_CURVE('',#109,#140,#145,.T.) ;
#163=EDGE_CURVE('',#133,#62,#162,.F.) ;
#168=EDGE_CURVE('',#140,#64,#167,.F.) ;
#189=EDGE_CURVE('',#186,#188,#184,.T.) ;
#196=EDGE_CURVE('',#195,#188,#193,.T.) ;
#203=EDGE_CURVE('',#202,#195,#200,.T.) ;
#208=EDGE_CURVE('',#202,#186,#207,.T.) ;
#220=EDGE_CURVE('',#188,#186,#219,.T.) ;
#225=EDGE_CURVE('',#195,#202,#224,.T.) ;
#246=EDGE_CURVE('',#243,#245,#241,.F.) ;
#253=EDGE_CURVE('',#252,#245,#250,.T.) ;
#260=EDGE_CURVE('',#259,#252,#257,.F.) ;
#265=EDGE_CURVE('',#259,#243,#264,.T.) ;
#284=EDGE_CURVE('',#283,#243,#281,.T.) ;
#291=EDGE_CURVE('',#290,#259,#288,.T.) ;
#296=EDGE_CURVE('',#290,#283,#295,.T.) ;
#315=EDGE_CURVE('',#314,#283,#312,.F.) ;
#322=EDGE_CURVE('',#321,#290,#319,.F.) ;
#327=EDGE_CURVE('',#321,#314,#326,.T.) ;
#344=EDGE_CURVE('',#245,#314,#343,.T.) ;
#349=EDGE_CURVE('',#252,#321,#348,.T.) ;
#85=EDGE_LOOP('',(#86,#87,#88,#89)) ;
#116=EDGE_LOOP('',(#117,#118,#119,#120)) ;
#147=EDGE_LOOP('',(#148,#149,#150,#151)) ;
#169=EDGE_LOOP('',(#170,#171,#172,#173)) ;
#209=EDGE_LOOP('',(#210,#211,#212,#213)) ;
#226=EDGE_LOOP('',(#227,#228,#229,#230)) ;
#266=EDGE_LOOP('',(#267,#268,#269,#270)) ;
#297=EDGE_LOOP('',(#298,#299,#300,#301)) ;
#328=EDGE_LOOP('',(#329,#330,#331,#332)) ;
#350=EDGE_LOOP('',(#351,#352,#353,#354)) ;
#362=EDGE_LOOP('',(#363,#364,#365,#366)) ;
#368=EDGE_LOOP('',(#369,#370)) ;
#372=EDGE_LOOP('',(#373,#374,#375,#376)) ;
#384=EDGE_LOOP('',(#385,#386,#387,#388)) ;
#390=EDGE_LOOP('',(#391,#392)) ;
#394=EDGE_LOOP('',(#395,#396,#397,#398)) ;
#90=FACE_OUTER_BOUND('',#85,.T.) ;
#121=FACE_OUTER_BOUND('',#116,.T.) ;
#152=FACE_OUTER_BOUND('',#147,.T.) ;
#174=FACE_OUTER_BOUND('',#169,.T.) ;
#214=FACE_OUTER_BOUND('',#209,.T.) ;
#231=FACE_OUTER_BOUND('',#226,.T.) ;
#271=FACE_OUTER_BOUND('',#266,.T.) ;
#302=FACE_OUTER_BOUND('',#297,.T.) ;
#333=FACE_OUTER_BOUND('',#328,.T.) ;
#355=FACE_OUTER_BOUND('',#350,.T.) ;
#367=FACE_OUTER_BOUND('',#362,.T.) ;
#389=FACE_OUTER_BOUND('',#384,.T.) ;
#45=UNCERTAINTY_MEASURE_WITH_UNIT(LENGTH_MEASURE(0.005),#41,'distance_accuracy_value','CONFUSED CURVE UNCERTAINTY') ;
#60=LINE('Line',#57,#59) ;
#76=LINE('Line',#73,#75) ;
#100=LINE('Line',#97,#99) ;
#107=LINE('Line',#104,#106) ;
#114=LINE('Line',#111,#113) ;
#138=LINE('Line',#135,#137) ;
#162=LINE('Line',#159,#161) ;
#167=LINE('Line',#164,#166) ;
#193=LINE('Line',#190,#192) ;
#207=LINE('Line',#204,#206) ;
#241=LINE('Line',#238,#240) ;
#250=LINE('Line',#247,#249) ;
#257=LINE('Line',#254,#256) ;
#264=LINE('Line',#261,#263) ;
#295=LINE('Line',#292,#294) ;
#312=LINE('Line',#309,#311) ;
#319=LINE('Line',#316,#318) ;
#326=LINE('Line',#323,#325) ;
#2=MECHANICAL_CONTEXT(' ',#1,'mechanical') ;
#24=PERSONAL_ADDRESS(' ',' ',' ',' ',' ',' ',' ',' ',' ',' ',' ',' ',(#22),' ') ;
#96=PLANE('Plane',#95) ;
#158=PLANE('Plane',#157) ;
#237=PLANE('Plane',#236) ;
#308=PLANE('Plane',#307) ;
#361=PLANE('Plane',#360) ;
#383=PLANE('Plane',#382) ;
#43=PLANE_ANGLE_MEASURE_WITH_UNIT(PLANE_ANGLE_MEASURE(0.0174532925199),#42) ;
#7=PRODUCT_CATEGORY('part',$) ;
#9=PRODUCT_CATEGORY_RELATIONSHIP(' ',' ',#7,#8) ;
#6=PRODUCT_DEFINITION_FORMATION_WITH_SPECIFIED_SOURCE('',' ',#5,.NOT_KNOWN.) ;
#8=PRODUCT_RELATED_PRODUCT_CATEGORY('detail',$,(#5)) ;
#50=SHAPE_DEFINITION_REPRESENTATION(#40,#49) ;
#62=VERTEX_POINT('',#61) ;
#64=VERTEX_POINT('',#63) ;
#71=VERTEX_POINT('',#70) ;
#78=VERTEX_POINT('',#77) ;
#102=VERTEX_POINT('',#101) ;
#109=VERTEX_POINT('',#108) ;
#133=VERTEX_POINT('',#132) ;
#140=VERTEX_POINT('',#139) ;
#186=VERTEX_POINT('',#185) ;
#188=VERTEX_POINT('',#187) ;
#195=VERTEX_POINT('',#194) ;
#202=VERTEX_POINT('',#201) ;
#243=VERTEX_POINT('',#242) ;
#245=VERTEX_POINT('',#244) ;
#252=VERTEX_POINT('',#251) ;
#259=VERTEX_POINT('',#258) ;
#283=VERTEX_POINT('',#282) ;
#290=VERTEX_POINT('',#289) ;
#314=VERTEX_POINT('',#313) ;
#321=VERTEX_POINT('',#320) ;
#41=(LENGTH_UNIT()NAMED_UNIT(*)SI_UNIT(.MILLI.,.METRE.)) ;
#42=(NAMED_UNIT(*)PLANE_ANGLE_UNIT()SI_UNIT($,.RADIAN.)) ;
#44=(NAMED_UNIT(*)SI_UNIT($,.STERADIAN.)SOLID_ANGLE_UNIT()) ;
#46=(GEOMETRIC_REPRESENTATION_CONTEXT(3)GLOBAL_UNCERTAINTY_ASSIGNED_CONTEXT((#45))GLOBAL_UNIT_ASSIGNED_CONTEXT((#41,#42,#44))REPRESENTATION_CONTEXT(' ',' ')) ;
ENDSEC;
END-ISO-10303-21;
