ISO-10303-21;
HEADER;
FILE_DESCRIPTION(('CATIA V5 STEP Exchange'),'2;1');

FILE_NAME('D:\\Utilisateur\\Documents\\Cours IPSA\\A\X2\00E9\X0\ro 2\\A\X2\00E9\X0\roIpsa\\Trident 2\\CU Shayane\\Pied.stp','2018-06-12T20:31:21+00:00',('none'),('none'),'CATIA Version 5 Release 17 (IN-10)','CATIA V5 STEP AP203','none');

FILE_SCHEMA(('CONFIG_CONTROL_DESIGN'));

ENDSEC;
/* file written by CATIA V5R17 */
DATA;
#5=PRODUCT('Pied','','',(#2)) ;
#1=APPLICATION_CONTEXT('configuration controlled 3D design of mechanical parts and assemblies') ;
#14=PRODUCT_DEFINITION(' ',' ',#6,#3) ;
#16=SECURITY_CLASSIFICATION(' ',' ',#15) ;
#15=SECURITY_CLASSIFICATION_LEVEL('unclassified') ;
#47=CARTESIAN_POINT(' ',(0.,0.,0.)) ;
#52=CARTESIAN_POINT('Axis2P3D Location',(2.,-4.7098360368E-015,38.5)) ;
#57=CARTESIAN_POINT('Line Origine',(2.,4.,38.5)) ;
#61=CARTESIAN_POINT('Vertex',(0.,4.,38.5)) ;
#63=CARTESIAN_POINT('Vertex',(4.,4.,38.5)) ;
#66=CARTESIAN_POINT('Axis2P3D Location',(0.,-4.7098360368E-015,38.5)) ;
#70=CARTESIAN_POINT('Vertex',(0.,-4.,38.5)) ;
#73=CARTESIAN_POINT('Line Origine',(2.,-4.,38.5)) ;
#77=CARTESIAN_POINT('Vertex',(4.,-4.,38.5)) ;
#80=CARTESIAN_POINT('Axis2P3D Location',(4.,-4.7098360368E-015,38.5)) ;
#92=CARTESIAN_POINT('Axis2P3D Location',(0.,-4.,-33.5)) ;
#97=CARTESIAN_POINT('Line Origine',(0.,-4.,2.5)) ;
#101=CARTESIAN_POINT('Vertex',(0.,-4.,-33.5)) ;
#104=CARTESIAN_POINT('Line Origine',(2.,-4.,-33.5)) ;
#108=CARTESIAN_POINT('Vertex',(4.,-4.,-33.5)) ;
#111=CARTESIAN_POINT('Line Origine',(4.,-4.,2.5)) ;
#123=CARTESIAN_POINT('Axis2P3D Location',(2.,7.25943012117E-015,-33.5)) ;
#128=CARTESIAN_POINT('Axis2P3D Location',(0.,7.25943012117E-015,-33.5)) ;
#132=CARTESIAN_POINT('Vertex',(0.,4.,-33.5)) ;
#135=CARTESIAN_POINT('Line Origine',(2.,4.,-33.5)) ;
#139=CARTESIAN_POINT('Vertex',(4.,4.,-33.5)) ;
#142=CARTESIAN_POINT('Axis2P3D Location',(4.,7.25943012117E-015,-33.5)) ;
#154=CARTESIAN_POINT('Axis2P3D Location',(0.,4.,38.5)) ;
#159=CARTESIAN_POINT('Line Origine',(0.,4.,2.5)) ;
#164=CARTESIAN_POINT('Line Origine',(4.,4.,2.5)) ;
#176=CARTESIAN_POINT('Axis2P3D Location',(2.,0.,38.5)) ;
#181=CARTESIAN_POINT('Axis2P3D Location',(4.,0.,38.5)) ;
#185=CARTESIAN_POINT('Vertex',(4.,-1.75,38.5)) ;
#187=CARTESIAN_POINT('Vertex',(4.,1.75,38.5)) ;
#190=CARTESIAN_POINT('Line Origine',(2.,1.75,38.5)) ;
#194=CARTESIAN_POINT('Vertex',(0.,1.75,38.5)) ;
#197=CARTESIAN_POINT('Axis2P3D Location',(0.,0.,38.5)) ;
#201=CARTESIAN_POINT('Vertex',(0.,-1.75,38.5)) ;
#204=CARTESIAN_POINT('Line Origine',(2.,-1.75,38.5)) ;
#216=CARTESIAN_POINT('Axis2P3D Location',(4.,0.,38.5)) ;
#221=CARTESIAN_POINT('Axis2P3D Location',(0.,0.,38.5)) ;
#233=CARTESIAN_POINT('Axis2P3D Location',(2.,0.,0.)) ;
#238=CARTESIAN_POINT('Axis2P3D Location',(4.,0.,0.)) ;
#242=CARTESIAN_POINT('Vertex',(4.,-1.75,2.14306111919E-016)) ;
#244=CARTESIAN_POINT('Vertex',(4.,1.75,0.)) ;
#247=CARTESIAN_POINT('Line Origine',(2.,1.75,-4.28612223838E-016)) ;
#251=CARTESIAN_POINT('Vertex',(0.,1.75,0.)) ;
#254=CARTESIAN_POINT('Axis2P3D Location',(0.,0.,0.)) ;
#258=CARTESIAN_POINT('Vertex',(0.,-1.75,2.14306111919E-016)) ;
#261=CARTESIAN_POINT('Line Origine',(2.,-1.75,2.14306111919E-016)) ;
#273=CARTESIAN_POINT('Axis2P3D Location',(4.,0.,0.)) ;
#278=CARTESIAN_POINT('Axis2P3D Location',(0.,0.,0.)) ;
#290=CARTESIAN_POINT('Axis2P3D Location',(0.,0.,0.)) ;
#310=CARTESIAN_POINT('Axis2P3D Location',(4.,0.,0.)) ;
#53=DIRECTION('Axis2P3D Direction',(1.,0.,0.)) ;
#54=DIRECTION('Axis2P3D XDirection',(0.,1.,0.)) ;
#58=DIRECTION('Vector Direction',(1.,0.,0.)) ;
#67=DIRECTION('Axis2P3D Direction',(1.,0.,0.)) ;
#74=DIRECTION('Vector Direction',(1.,0.,0.)) ;
#81=DIRECTION('Axis2P3D Direction',(1.,0.,0.)) ;
#93=DIRECTION('Axis2P3D Direction',(0.,1.,0.)) ;
#94=DIRECTION('Axis2P3D XDirection',(0.,0.,1.)) ;
#98=DIRECTION('Vector Direction',(0.,0.,1.)) ;
#105=DIRECTION('Vector Direction',(1.,0.,0.)) ;
#112=DIRECTION('Vector Direction',(0.,0.,1.)) ;
#124=DIRECTION('Axis2P3D Direction',(1.,0.,0.)) ;
#125=DIRECTION('Axis2P3D XDirection',(0.,-1.,1.22460635382E-016)) ;
#129=DIRECTION('Axis2P3D Direction',(1.,0.,0.)) ;
#136=DIRECTION('Vector Direction',(1.,0.,0.)) ;
#143=DIRECTION('Axis2P3D Direction',(1.,0.,0.)) ;
#155=DIRECTION('Axis2P3D Direction',(0.,-1.,0.)) ;
#156=DIRECTION('Axis2P3D XDirection',(0.,0.,-1.)) ;
#160=DIRECTION('Vector Direction',(0.,0.,-1.)) ;
#165=DIRECTION('Vector Direction',(0.,0.,-1.)) ;
#177=DIRECTION('Axis2P3D Direction',(1.,0.,0.)) ;
#178=DIRECTION('Axis2P3D XDirection',(0.,1.,0.)) ;
#182=DIRECTION('Axis2P3D Direction',(1.,0.,0.)) ;
#191=DIRECTION('Vector Direction',(1.,0.,0.)) ;
#198=DIRECTION('Axis2P3D Direction',(1.,0.,0.)) ;
#205=DIRECTION('Vector Direction',(1.,0.,0.)) ;
#217=DIRECTION('Axis2P3D Direction',(1.,0.,0.)) ;
#222=DIRECTION('Axis2P3D Direction',(1.,0.,0.)) ;
#234=DIRECTION('Axis2P3D Direction',(1.,0.,0.)) ;
#235=DIRECTION('Axis2P3D XDirection',(0.,1.,0.)) ;
#239=DIRECTION('Axis2P3D Direction',(1.,0.,0.)) ;
#248=DIRECTION('Vector Direction',(1.,0.,0.)) ;
#255=DIRECTION('Axis2P3D Direction',(1.,0.,0.)) ;
#262=DIRECTION('Vector Direction',(1.,0.,0.)) ;
#274=DIRECTION('Axis2P3D Direction',(1.,0.,0.)) ;
#279=DIRECTION('Axis2P3D Direction',(1.,0.,0.)) ;
#291=DIRECTION('Axis2P3D Direction',(1.,0.,0.)) ;
#292=DIRECTION('Axis2P3D XDirection',(0.,1.,0.)) ;
#311=DIRECTION('Axis2P3D Direction',(1.,0.,0.)) ;
#312=DIRECTION('Axis2P3D XDirection',(0.,1.,0.)) ;
#48=AXIS2_PLACEMENT_3D(' ',#47,$,$) ;
#55=AXIS2_PLACEMENT_3D('Cylinder Axis2P3D',#52,#53,#54) ;
#68=AXIS2_PLACEMENT_3D('Circle Axis2P3D',#66,#67,$) ;
#82=AXIS2_PLACEMENT_3D('Circle Axis2P3D',#80,#81,$) ;
#95=AXIS2_PLACEMENT_3D('Plane Axis2P3D',#92,#93,#94) ;
#126=AXIS2_PLACEMENT_3D('Cylinder Axis2P3D',#123,#124,#125) ;
#130=AXIS2_PLACEMENT_3D('Circle Axis2P3D',#128,#129,$) ;
#144=AXIS2_PLACEMENT_3D('Circle Axis2P3D',#142,#143,$) ;
#157=AXIS2_PLACEMENT_3D('Plane Axis2P3D',#154,#155,#156) ;
#179=AXIS2_PLACEMENT_3D('Cylinder Axis2P3D',#176,#177,#178) ;
#183=AXIS2_PLACEMENT_3D('Circle Axis2P3D',#181,#182,$) ;
#199=AXIS2_PLACEMENT_3D('Circle Axis2P3D',#197,#198,$) ;
#218=AXIS2_PLACEMENT_3D('Circle Axis2P3D',#216,#217,$) ;
#223=AXIS2_PLACEMENT_3D('Circle Axis2P3D',#221,#222,$) ;
#236=AXIS2_PLACEMENT_3D('Cylinder Axis2P3D',#233,#234,#235) ;
#240=AXIS2_PLACEMENT_3D('Circle Axis2P3D',#238,#239,$) ;
#256=AXIS2_PLACEMENT_3D('Circle Axis2P3D',#254,#255,$) ;
#275=AXIS2_PLACEMENT_3D('Circle Axis2P3D',#273,#274,$) ;
#280=AXIS2_PLACEMENT_3D('Circle Axis2P3D',#278,#279,$) ;
#293=AXIS2_PLACEMENT_3D('Plane Axis2P3D',#290,#291,#292) ;
#313=AXIS2_PLACEMENT_3D('Plane Axis2P3D',#310,#311,#312) ;
#40=PRODUCT_DEFINITION_SHAPE(' ',' ',#14) ;
#31=APPROVAL_PERSON_ORGANIZATION(#25,#21,#19) ;
#25=PERSON_AND_ORGANIZATION(#22,#23) ;
#22=PERSON(' ',' ',' ',$,$,$) ;
#23=ORGANIZATION(' ',' ',' ') ;
#21=APPROVAL(#20,' ') ;
#20=APPROVAL_STATUS('not_yet_approved') ;
#19=APPROVAL_ROLE('APPROVER') ;
#13=DATE_AND_TIME(#11,#12) ;
#12=LOCAL_TIME(22,31,21.,#10) ;
#10=COORDINATED_UNIVERSAL_TIME_OFFSET(0,0,.AHEAD.) ;
#86=ORIENTED_EDGE('',*,*,#65,.F.) ;
#87=ORIENTED_EDGE('',*,*,#72,.T.) ;
#88=ORIENTED_EDGE('',*,*,#79,.T.) ;
#89=ORIENTED_EDGE('',*,*,#84,.F.) ;
#117=ORIENTED_EDGE('',*,*,#79,.F.) ;
#118=ORIENTED_EDGE('',*,*,#103,.T.) ;
#119=ORIENTED_EDGE('',*,*,#110,.T.) ;
#120=ORIENTED_EDGE('',*,*,#115,.F.) ;
#148=ORIENTED_EDGE('',*,*,#110,.F.) ;
#149=ORIENTED_EDGE('',*,*,#134,.T.) ;
#150=ORIENTED_EDGE('',*,*,#141,.T.) ;
#151=ORIENTED_EDGE('',*,*,#146,.F.) ;
#170=ORIENTED_EDGE('',*,*,#141,.F.) ;
#171=ORIENTED_EDGE('',*,*,#163,.T.) ;
#172=ORIENTED_EDGE('',*,*,#65,.T.) ;
#173=ORIENTED_EDGE('',*,*,#168,.F.) ;
#210=ORIENTED_EDGE('',*,*,#189,.T.) ;
#211=ORIENTED_EDGE('',*,*,#196,.F.) ;
#212=ORIENTED_EDGE('',*,*,#203,.F.) ;
#213=ORIENTED_EDGE('',*,*,#208,.T.) ;
#227=ORIENTED_EDGE('',*,*,#220,.T.) ;
#228=ORIENTED_EDGE('',*,*,#208,.F.) ;
#229=ORIENTED_EDGE('',*,*,#225,.F.) ;
#230=ORIENTED_EDGE('',*,*,#196,.T.) ;
#267=ORIENTED_EDGE('',*,*,#246,.T.) ;
#268=ORIENTED_EDGE('',*,*,#253,.F.) ;
#269=ORIENTED_EDGE('',*,*,#260,.F.) ;
#270=ORIENTED_EDGE('',*,*,#265,.T.) ;
#284=ORIENTED_EDGE('',*,*,#277,.T.) ;
#285=ORIENTED_EDGE('',*,*,#265,.F.) ;
#286=ORIENTED_EDGE('',*,*,#282,.F.) ;
#287=ORIENTED_EDGE('',*,*,#253,.T.) ;
#296=ORIENTED_EDGE('',*,*,#163,.F.) ;
#297=ORIENTED_EDGE('',*,*,#134,.F.) ;
#298=ORIENTED_EDGE('',*,*,#103,.F.) ;
#299=ORIENTED_EDGE('',*,*,#72,.F.) ;
#302=ORIENTED_EDGE('',*,*,#225,.T.) ;
#303=ORIENTED_EDGE('',*,*,#203,.T.) ;
#306=ORIENTED_EDGE('',*,*,#282,.T.) ;
#307=ORIENTED_EDGE('',*,*,#260,.T.) ;
#316=ORIENTED_EDGE('',*,*,#84,.T.) ;
#317=ORIENTED_EDGE('',*,*,#115,.T.) ;
#318=ORIENTED_EDGE('',*,*,#146,.T.) ;
#319=ORIENTED_EDGE('',*,*,#168,.T.) ;
#322=ORIENTED_EDGE('',*,*,#189,.F.) ;
#323=ORIENTED_EDGE('',*,*,#220,.F.) ;
#326=ORIENTED_EDGE('',*,*,#246,.F.) ;
#327=ORIENTED_EDGE('',*,*,#277,.F.) ;
#304=FACE_BOUND('',#301,.T.) ;
#308=FACE_BOUND('',#305,.T.) ;
#324=FACE_BOUND('',#321,.T.) ;
#328=FACE_BOUND('',#325,.T.) ;
#51=CLOSED_SHELL('Closed Shell',(#91,#122,#153,#175,#215,#232,#272,#289,#309,#329)) ;
#59=VECTOR('Line Direction',#58,1.) ;
#75=VECTOR('Line Direction',#74,1.) ;
#99=VECTOR('Line Direction',#98,1.) ;
#106=VECTOR('Line Direction',#105,1.) ;
#113=VECTOR('Line Direction',#112,1.) ;
#137=VECTOR('Line Direction',#136,1.) ;
#161=VECTOR('Line Direction',#160,1.) ;
#166=VECTOR('Line Direction',#165,1.) ;
#192=VECTOR('Line Direction',#191,1.) ;
#206=VECTOR('Line Direction',#205,1.) ;
#249=VECTOR('Line Direction',#248,1.) ;
#263=VECTOR('Line Direction',#262,1.) ;
#331=ADVANCED_BREP_SHAPE_REPRESENTATION('NONE',(#330),#46) ;
#49=SHAPE_REPRESENTATION(' ',(#48),#46) ;
#91=ADVANCED_FACE('',(#90),#56,.T.) ;
#122=ADVANCED_FACE('',(#121),#96,.F.) ;
#153=ADVANCED_FACE('',(#152),#127,.T.) ;
#175=ADVANCED_FACE('',(#174),#158,.F.) ;
#215=ADVANCED_FACE('',(#214),#180,.F.) ;
#232=ADVANCED_FACE('',(#231),#180,.F.) ;
#272=ADVANCED_FACE('',(#271),#237,.F.) ;
#289=ADVANCED_FACE('',(#288),#237,.F.) ;
#309=ADVANCED_FACE('',(#300,#304,#308),#294,.F.) ;
#329=ADVANCED_FACE('',(#320,#324,#328),#314,.T.) ;
#4=APPLICATION_PROTOCOL_DEFINITION('international standard','config_control_design',1994,#1) ;
#32=APPROVAL_DATE_TIME(#13,#21) ;
#330=MANIFOLD_SOLID_BREP('Corps principal',#51) ;
#11=CALENDAR_DATE(2018,12,6) ;
#30=CC_DESIGN_APPROVAL(#21,(#16,#6,#14)) ;
#18=CC_DESIGN_DATE_AND_TIME_ASSIGNMENT(#13,#17,(#16)) ;
#29=CC_DESIGN_DATE_AND_TIME_ASSIGNMENT(#13,#28,(#14)) ;
#17=DATE_TIME_ROLE('classification_date') ;
#28=DATE_TIME_ROLE('creation_date') ;
#27=CC_DESIGN_PERSON_AND_ORGANIZATION_ASSIGNMENT(#25,#26,(#16)) ;
#33=CC_DESIGN_PERSON_AND_ORGANIZATION_ASSIGNMENT(#25,#34,(#6)) ;
#35=CC_DESIGN_PERSON_AND_ORGANIZATION_ASSIGNMENT(#25,#36,(#6,#14)) ;
#37=CC_DESIGN_PERSON_AND_ORGANIZATION_ASSIGNMENT(#25,#38,(#5)) ;
#26=PERSON_AND_ORGANIZATION_ROLE('classification_officer') ;
#34=PERSON_AND_ORGANIZATION_ROLE('design_supplier') ;
#36=PERSON_AND_ORGANIZATION_ROLE('creator') ;
#38=PERSON_AND_ORGANIZATION_ROLE('design_owner') ;
#39=CC_DESIGN_SECURITY_CLASSIFICATION(#16,(#6)) ;
#69=CIRCLE('generated circle',#68,4.) ;
#83=CIRCLE('generated circle',#82,4.) ;
#131=CIRCLE('generated circle',#130,4.) ;
#145=CIRCLE('generated circle',#144,4.) ;
#184=CIRCLE('generated circle',#183,1.75) ;
#200=CIRCLE('generated circle',#199,1.75) ;
#219=CIRCLE('generated circle',#218,1.75) ;
#224=CIRCLE('generated circle',#223,1.75) ;
#241=CIRCLE('generated circle',#240,1.75) ;
#257=CIRCLE('generated circle',#256,1.75) ;
#276=CIRCLE('generated circle',#275,1.75) ;
#281=CIRCLE('generated circle',#280,1.75) ;
#332=SHAPE_REPRESENTATION_RELATIONSHIP(' ',' ',#49,#331) ;
#56=CYLINDRICAL_SURFACE('generated cylinder',#55,4.) ;
#127=CYLINDRICAL_SURFACE('generated cylinder',#126,4.) ;
#180=CYLINDRICAL_SURFACE('generated cylinder',#179,1.75) ;
#237=CYLINDRICAL_SURFACE('generated cylinder',#236,1.75) ;
#3=DESIGN_CONTEXT(' ',#1,'design') ;
#65=EDGE_CURVE('',#62,#64,#60,.T.) ;
#72=EDGE_CURVE('',#62,#71,#69,.T.) ;
#79=EDGE_CURVE('',#71,#78,#76,.T.) ;
#84=EDGE_CURVE('',#64,#78,#83,.T.) ;
#103=EDGE_CURVE('',#71,#102,#100,.F.) ;
#110=EDGE_CURVE('',#102,#109,#107,.T.) ;
#115=EDGE_CURVE('',#78,#109,#114,.F.) ;
#134=EDGE_CURVE('',#102,#133,#131,.T.) ;
#141=EDGE_CURVE('',#133,#140,#138,.T.) ;
#146=EDGE_CURVE('',#109,#140,#145,.T.) ;
#163=EDGE_CURVE('',#133,#62,#162,.F.) ;
#168=EDGE_CURVE('',#140,#64,#167,.F.) ;
#189=EDGE_CURVE('',#186,#188,#184,.T.) ;
#196=EDGE_CURVE('',#195,#188,#193,.T.) ;
#203=EDGE_CURVE('',#202,#195,#200,.T.) ;
#208=EDGE_CURVE('',#202,#186,#207,.T.) ;
#220=EDGE_CURVE('',#188,#186,#219,.T.) ;
#225=EDGE_CURVE('',#195,#202,#224,.T.) ;
#246=EDGE_CURVE('',#243,#245,#241,.T.) ;
#253=EDGE_CURVE('',#252,#245,#250,.T.) ;
#260=EDGE_CURVE('',#259,#252,#257,.T.) ;
#265=EDGE_CURVE('',#259,#243,#264,.T.) ;
#277=EDGE_CURVE('',#245,#243,#276,.T.) ;
#282=EDGE_CURVE('',#252,#259,#281,.T.) ;
#85=EDGE_LOOP('',(#86,#87,#88,#89)) ;
#116=EDGE_LOOP('',(#117,#118,#119,#120)) ;
#147=EDGE_LOOP('',(#148,#149,#150,#151)) ;
#169=EDGE_LOOP('',(#170,#171,#172,#173)) ;
#209=EDGE_LOOP('',(#210,#211,#212,#213)) ;
#226=EDGE_LOOP('',(#227,#228,#229,#230)) ;
#266=EDGE_LOOP('',(#267,#268,#269,#270)) ;
#283=EDGE_LOOP('',(#284,#285,#286,#287)) ;
#295=EDGE_LOOP('',(#296,#297,#298,#299)) ;
#301=EDGE_LOOP('',(#302,#303)) ;
#305=EDGE_LOOP('',(#306,#307)) ;
#315=EDGE_LOOP('',(#316,#317,#318,#319)) ;
#321=EDGE_LOOP('',(#322,#323)) ;
#325=EDGE_LOOP('',(#326,#327)) ;
#90=FACE_OUTER_BOUND('',#85,.T.) ;
#121=FACE_OUTER_BOUND('',#116,.T.) ;
#152=FACE_OUTER_BOUND('',#147,.T.) ;
#174=FACE_OUTER_BOUND('',#169,.T.) ;
#214=FACE_OUTER_BOUND('',#209,.T.) ;
#231=FACE_OUTER_BOUND('',#226,.T.) ;
#271=FACE_OUTER_BOUND('',#266,.T.) ;
#288=FACE_OUTER_BOUND('',#283,.T.) ;
#300=FACE_OUTER_BOUND('',#295,.T.) ;
#320=FACE_OUTER_BOUND('',#315,.T.) ;
#45=UNCERTAINTY_MEASURE_WITH_UNIT(LENGTH_MEASURE(0.005),#41,'distance_accuracy_value','CONFUSED CURVE UNCERTAINTY') ;
#60=LINE('Line',#57,#59) ;
#76=LINE('Line',#73,#75) ;
#100=LINE('Line',#97,#99) ;
#107=LINE('Line',#104,#106) ;
#114=LINE('Line',#111,#113) ;
#138=LINE('Line',#135,#137) ;
#162=LINE('Line',#159,#161) ;
#167=LINE('Line',#164,#166) ;
#193=LINE('Line',#190,#192) ;
#207=LINE('Line',#204,#206) ;
#250=LINE('Line',#247,#249) ;
#264=LINE('Line',#261,#263) ;
#2=MECHANICAL_CONTEXT(' ',#1,'mechanical') ;
#24=PERSONAL_ADDRESS(' ',' ',' ',' ',' ',' ',' ',' ',' ',' ',' ',' ',(#22),' ') ;
#96=PLANE('Plane',#95) ;
#158=PLANE('Plane',#157) ;
#294=PLANE('Plane',#293) ;
#314=PLANE('Plane',#313) ;
#43=PLANE_ANGLE_MEASURE_WITH_UNIT(PLANE_ANGLE_MEASURE(0.0174532925199),#42) ;
#7=PRODUCT_CATEGORY('part',$) ;
#9=PRODUCT_CATEGORY_RELATIONSHIP(' ',' ',#7,#8) ;
#6=PRODUCT_DEFINITION_FORMATION_WITH_SPECIFIED_SOURCE('',' ',#5,.NOT_KNOWN.) ;
#8=PRODUCT_RELATED_PRODUCT_CATEGORY('detail',$,(#5)) ;
#50=SHAPE_DEFINITION_REPRESENTATION(#40,#49) ;
#62=VERTEX_POINT('',#61) ;
#64=VERTEX_POINT('',#63) ;
#71=VERTEX_POINT('',#70) ;
#78=VERTEX_POINT('',#77) ;
#102=VERTEX_POINT('',#101) ;
#109=VERTEX_POINT('',#108) ;
#133=VERTEX_POINT('',#132) ;
#140=VERTEX_POINT('',#139) ;
#186=VERTEX_POINT('',#185) ;
#188=VERTEX_POINT('',#187) ;
#195=VERTEX_POINT('',#194) ;
#202=VERTEX_POINT('',#201) ;
#243=VERTEX_POINT('',#242) ;
#245=VERTEX_POINT('',#244) ;
#252=VERTEX_POINT('',#251) ;
#259=VERTEX_POINT('',#258) ;
#41=(LENGTH_UNIT()NAMED_UNIT(*)SI_UNIT(.MILLI.,.METRE.)) ;
#42=(NAMED_UNIT(*)PLANE_ANGLE_UNIT()SI_UNIT($,.RADIAN.)) ;
#44=(NAMED_UNIT(*)SI_UNIT($,.STERADIAN.)SOLID_ANGLE_UNIT()) ;
#46=(GEOMETRIC_REPRESENTATION_CONTEXT(3)GLOBAL_UNCERTAINTY_ASSIGNED_CONTEXT((#45))GLOBAL_UNIT_ASSIGNED_CONTEXT((#41,#42,#44))REPRESENTATION_CONTEXT(' ',' ')) ;
ENDSEC;
END-ISO-10303-21;
