ISO-10303-21;
HEADER;
FILE_DESCRIPTION(('CATIA V5 STEP Exchange'),'2;1');

FILE_NAME('D:\\Utilisateur\\Documents\\Cours IPSA\\A\X2\00E9\X0\ro 2\\A\X2\00E9\X0\roIpsa\\Trident 2\\CU Shayane\\Pied Haut.stp','2018-06-12T20:31:31+00:00',('none'),('none'),'CATIA Version 5 Release 17 (IN-10)','CATIA V5 STEP AP203','none');

FILE_SCHEMA(('CONFIG_CONTROL_DESIGN'));

ENDSEC;
/* file written by CATIA V5R17 */
DATA;
#5=PRODUCT('Pied Haut','','',(#2)) ;
#1=APPLICATION_CONTEXT('configuration controlled 3D design of mechanical parts and assemblies') ;
#14=PRODUCT_DEFINITION(' ',' ',#6,#3) ;
#16=SECURITY_CLASSIFICATION(' ',' ',#15) ;
#15=SECURITY_CLASSIFICATION_LEVEL('unclassified') ;
#47=CARTESIAN_POINT(' ',(0.,0.,0.)) ;
#52=CARTESIAN_POINT('Axis2P3D Location',(2.,-23.5,0.)) ;
#57=CARTESIAN_POINT('Line Origine',(2.,-23.5,4.)) ;
#61=CARTESIAN_POINT('Vertex',(0.,-23.5,4.)) ;
#63=CARTESIAN_POINT('Vertex',(4.,-23.5,4.)) ;
#66=CARTESIAN_POINT('Axis2P3D Location',(0.,-23.5,0.)) ;
#70=CARTESIAN_POINT('Vertex',(0.,-23.5,-4.)) ;
#73=CARTESIAN_POINT('Line Origine',(2.,-23.5,-4.)) ;
#77=CARTESIAN_POINT('Vertex',(4.,-23.5,-4.)) ;
#80=CARTESIAN_POINT('Axis2P3D Location',(4.,-23.5,0.)) ;
#92=CARTESIAN_POINT('Axis2P3D Location',(0.,-3.95092217352,-4.)) ;
#97=CARTESIAN_POINT('Line Origine',(0.,-13.7254610868,-4.)) ;
#101=CARTESIAN_POINT('Vertex',(0.,-3.95092217352,-4.)) ;
#104=CARTESIAN_POINT('Line Origine',(2.,-3.95092217352,-4.)) ;
#108=CARTESIAN_POINT('Vertex',(4.,-3.95092217352,-4.)) ;
#111=CARTESIAN_POINT('Line Origine',(4.,-13.7254610868,-4.)) ;
#123=CARTESIAN_POINT('Line Origine',(0.,5.52453891324,-4.)) ;
#127=CARTESIAN_POINT('Vertex',(0.,15.,-4.)) ;
#130=CARTESIAN_POINT('Line Origine',(2.,15.,-4.)) ;
#134=CARTESIAN_POINT('Vertex',(4.,15.,-4.)) ;
#137=CARTESIAN_POINT('Line Origine',(4.,5.52453891324,-4.)) ;
#149=CARTESIAN_POINT('Axis2P3D Location',(2.,15.,0.)) ;
#154=CARTESIAN_POINT('Axis2P3D Location',(0.,15.,0.)) ;
#158=CARTESIAN_POINT('Vertex',(0.,15.,4.)) ;
#161=CARTESIAN_POINT('Line Origine',(2.,15.,4.)) ;
#165=CARTESIAN_POINT('Vertex',(4.,15.,4.)) ;
#168=CARTESIAN_POINT('Axis2P3D Location',(4.,15.,0.)) ;
#180=CARTESIAN_POINT('Axis2P3D Location',(0.,0.,4.)) ;
#185=CARTESIAN_POINT('Line Origine',(0.,7.5,4.)) ;
#189=CARTESIAN_POINT('Vertex',(0.,0.,4.)) ;
#192=CARTESIAN_POINT('Line Origine',(2.,0.,4.)) ;
#196=CARTESIAN_POINT('Vertex',(4.,0.,4.)) ;
#199=CARTESIAN_POINT('Line Origine',(4.,7.5,4.)) ;
#211=CARTESIAN_POINT('Line Origine',(0.,-11.75,4.)) ;
#216=CARTESIAN_POINT('Line Origine',(4.,-11.75,4.)) ;
#228=CARTESIAN_POINT('Axis2P3D Location',(2.,0.,0.)) ;
#233=CARTESIAN_POINT('Axis2P3D Location',(4.,0.,0.)) ;
#237=CARTESIAN_POINT('Vertex',(4.,-2.,2.44921270764E-016)) ;
#239=CARTESIAN_POINT('Vertex',(4.,2.,0.)) ;
#242=CARTESIAN_POINT('Line Origine',(2.,2.,-4.89842541529E-016)) ;
#246=CARTESIAN_POINT('Vertex',(0.,2.,0.)) ;
#249=CARTESIAN_POINT('Axis2P3D Location',(0.,0.,0.)) ;
#253=CARTESIAN_POINT('Vertex',(0.,-2.,2.44921270764E-016)) ;
#256=CARTESIAN_POINT('Line Origine',(2.,-2.,2.44921270764E-016)) ;
#268=CARTESIAN_POINT('Axis2P3D Location',(4.,0.,0.)) ;
#273=CARTESIAN_POINT('Axis2P3D Location',(0.,0.,0.)) ;
#285=CARTESIAN_POINT('Axis2P3D Location',(2.,-23.5,0.)) ;
#290=CARTESIAN_POINT('Axis2P3D Location',(4.,-23.5,0.)) ;
#294=CARTESIAN_POINT('Vertex',(4.,-25.5,2.44921270764E-016)) ;
#296=CARTESIAN_POINT('Vertex',(4.,-21.5,0.)) ;
#299=CARTESIAN_POINT('Line Origine',(2.,-21.5,-4.89842541529E-016)) ;
#303=CARTESIAN_POINT('Vertex',(0.,-21.5,0.)) ;
#306=CARTESIAN_POINT('Axis2P3D Location',(0.,-23.5,0.)) ;
#310=CARTESIAN_POINT('Vertex',(0.,-25.5,2.44921270764E-016)) ;
#313=CARTESIAN_POINT('Line Origine',(2.,-25.5,2.44921270764E-016)) ;
#325=CARTESIAN_POINT('Axis2P3D Location',(4.,-23.5,0.)) ;
#330=CARTESIAN_POINT('Axis2P3D Location',(0.,-23.5,0.)) ;
#342=CARTESIAN_POINT('Axis2P3D Location',(2.,15.,0.)) ;
#347=CARTESIAN_POINT('Axis2P3D Location',(4.,15.,0.)) ;
#351=CARTESIAN_POINT('Vertex',(4.,13.25,2.14306111919E-016)) ;
#353=CARTESIAN_POINT('Vertex',(4.,16.75,0.)) ;
#356=CARTESIAN_POINT('Line Origine',(2.,16.75,-4.28612223838E-016)) ;
#360=CARTESIAN_POINT('Vertex',(0.,16.75,0.)) ;
#363=CARTESIAN_POINT('Axis2P3D Location',(0.,15.,0.)) ;
#367=CARTESIAN_POINT('Vertex',(0.,13.25,2.14306111919E-016)) ;
#370=CARTESIAN_POINT('Line Origine',(2.,13.25,2.14306111919E-016)) ;
#382=CARTESIAN_POINT('Axis2P3D Location',(4.,15.,0.)) ;
#387=CARTESIAN_POINT('Axis2P3D Location',(0.,15.,0.)) ;
#399=CARTESIAN_POINT('Axis2P3D Location',(0.,0.,0.)) ;
#425=CARTESIAN_POINT('Axis2P3D Location',(4.,0.,0.)) ;
#53=DIRECTION('Axis2P3D Direction',(1.,0.,0.)) ;
#54=DIRECTION('Axis2P3D XDirection',(0.,9.49408737391E-016,1.)) ;
#58=DIRECTION('Vector Direction',(1.,0.,0.)) ;
#67=DIRECTION('Axis2P3D Direction',(1.,0.,0.)) ;
#74=DIRECTION('Vector Direction',(1.,0.,0.)) ;
#81=DIRECTION('Axis2P3D Direction',(1.,0.,0.)) ;
#93=DIRECTION('Axis2P3D Direction',(0.,0.,1.)) ;
#94=DIRECTION('Axis2P3D XDirection',(0.,-1.,0.)) ;
#98=DIRECTION('Vector Direction',(0.,-1.,0.)) ;
#105=DIRECTION('Vector Direction',(1.,0.,0.)) ;
#112=DIRECTION('Vector Direction',(0.,-1.,0.)) ;
#124=DIRECTION('Vector Direction',(0.,-1.,0.)) ;
#131=DIRECTION('Vector Direction',(1.,0.,0.)) ;
#138=DIRECTION('Vector Direction',(0.,-1.,0.)) ;
#150=DIRECTION('Axis2P3D Direction',(1.,0.,0.)) ;
#151=DIRECTION('Axis2P3D XDirection',(0.,-1.83690953073E-016,-1.)) ;
#155=DIRECTION('Axis2P3D Direction',(1.,0.,0.)) ;
#162=DIRECTION('Vector Direction',(1.,0.,0.)) ;
#169=DIRECTION('Axis2P3D Direction',(1.,0.,0.)) ;
#181=DIRECTION('Axis2P3D Direction',(0.,0.,-1.)) ;
#182=DIRECTION('Axis2P3D XDirection',(0.,1.,0.)) ;
#186=DIRECTION('Vector Direction',(0.,1.,0.)) ;
#193=DIRECTION('Vector Direction',(1.,0.,0.)) ;
#200=DIRECTION('Vector Direction',(0.,1.,0.)) ;
#212=DIRECTION('Vector Direction',(0.,1.,0.)) ;
#217=DIRECTION('Vector Direction',(0.,1.,0.)) ;
#229=DIRECTION('Axis2P3D Direction',(1.,0.,0.)) ;
#230=DIRECTION('Axis2P3D XDirection',(0.,1.,0.)) ;
#234=DIRECTION('Axis2P3D Direction',(1.,0.,0.)) ;
#243=DIRECTION('Vector Direction',(1.,0.,0.)) ;
#250=DIRECTION('Axis2P3D Direction',(1.,0.,0.)) ;
#257=DIRECTION('Vector Direction',(1.,0.,0.)) ;
#269=DIRECTION('Axis2P3D Direction',(1.,0.,0.)) ;
#274=DIRECTION('Axis2P3D Direction',(1.,0.,0.)) ;
#286=DIRECTION('Axis2P3D Direction',(1.,0.,0.)) ;
#287=DIRECTION('Axis2P3D XDirection',(0.,1.,0.)) ;
#291=DIRECTION('Axis2P3D Direction',(1.,0.,0.)) ;
#300=DIRECTION('Vector Direction',(1.,0.,0.)) ;
#307=DIRECTION('Axis2P3D Direction',(1.,0.,0.)) ;
#314=DIRECTION('Vector Direction',(1.,0.,0.)) ;
#326=DIRECTION('Axis2P3D Direction',(1.,0.,0.)) ;
#331=DIRECTION('Axis2P3D Direction',(1.,0.,0.)) ;
#343=DIRECTION('Axis2P3D Direction',(1.,0.,0.)) ;
#344=DIRECTION('Axis2P3D XDirection',(0.,1.,0.)) ;
#348=DIRECTION('Axis2P3D Direction',(1.,0.,0.)) ;
#357=DIRECTION('Vector Direction',(1.,0.,0.)) ;
#364=DIRECTION('Axis2P3D Direction',(1.,0.,0.)) ;
#371=DIRECTION('Vector Direction',(1.,0.,0.)) ;
#383=DIRECTION('Axis2P3D Direction',(1.,0.,0.)) ;
#388=DIRECTION('Axis2P3D Direction',(1.,0.,0.)) ;
#400=DIRECTION('Axis2P3D Direction',(1.,0.,0.)) ;
#401=DIRECTION('Axis2P3D XDirection',(0.,1.,0.)) ;
#426=DIRECTION('Axis2P3D Direction',(1.,0.,0.)) ;
#427=DIRECTION('Axis2P3D XDirection',(0.,1.,0.)) ;
#48=AXIS2_PLACEMENT_3D(' ',#47,$,$) ;
#55=AXIS2_PLACEMENT_3D('Cylinder Axis2P3D',#52,#53,#54) ;
#68=AXIS2_PLACEMENT_3D('Circle Axis2P3D',#66,#67,$) ;
#82=AXIS2_PLACEMENT_3D('Circle Axis2P3D',#80,#81,$) ;
#95=AXIS2_PLACEMENT_3D('Plane Axis2P3D',#92,#93,#94) ;
#152=AXIS2_PLACEMENT_3D('Cylinder Axis2P3D',#149,#150,#151) ;
#156=AXIS2_PLACEMENT_3D('Circle Axis2P3D',#154,#155,$) ;
#170=AXIS2_PLACEMENT_3D('Circle Axis2P3D',#168,#169,$) ;
#183=AXIS2_PLACEMENT_3D('Plane Axis2P3D',#180,#181,#182) ;
#231=AXIS2_PLACEMENT_3D('Cylinder Axis2P3D',#228,#229,#230) ;
#235=AXIS2_PLACEMENT_3D('Circle Axis2P3D',#233,#234,$) ;
#251=AXIS2_PLACEMENT_3D('Circle Axis2P3D',#249,#250,$) ;
#270=AXIS2_PLACEMENT_3D('Circle Axis2P3D',#268,#269,$) ;
#275=AXIS2_PLACEMENT_3D('Circle Axis2P3D',#273,#274,$) ;
#288=AXIS2_PLACEMENT_3D('Cylinder Axis2P3D',#285,#286,#287) ;
#292=AXIS2_PLACEMENT_3D('Circle Axis2P3D',#290,#291,$) ;
#308=AXIS2_PLACEMENT_3D('Circle Axis2P3D',#306,#307,$) ;
#327=AXIS2_PLACEMENT_3D('Circle Axis2P3D',#325,#326,$) ;
#332=AXIS2_PLACEMENT_3D('Circle Axis2P3D',#330,#331,$) ;
#345=AXIS2_PLACEMENT_3D('Cylinder Axis2P3D',#342,#343,#344) ;
#349=AXIS2_PLACEMENT_3D('Circle Axis2P3D',#347,#348,$) ;
#365=AXIS2_PLACEMENT_3D('Circle Axis2P3D',#363,#364,$) ;
#384=AXIS2_PLACEMENT_3D('Circle Axis2P3D',#382,#383,$) ;
#389=AXIS2_PLACEMENT_3D('Circle Axis2P3D',#387,#388,$) ;
#402=AXIS2_PLACEMENT_3D('Plane Axis2P3D',#399,#400,#401) ;
#428=AXIS2_PLACEMENT_3D('Plane Axis2P3D',#425,#426,#427) ;
#40=PRODUCT_DEFINITION_SHAPE(' ',' ',#14) ;
#31=APPROVAL_PERSON_ORGANIZATION(#25,#21,#19) ;
#25=PERSON_AND_ORGANIZATION(#22,#23) ;
#22=PERSON(' ',' ',' ',$,$,$) ;
#23=ORGANIZATION(' ',' ',' ') ;
#21=APPROVAL(#20,' ') ;
#20=APPROVAL_STATUS('not_yet_approved') ;
#19=APPROVAL_ROLE('APPROVER') ;
#13=DATE_AND_TIME(#11,#12) ;
#12=LOCAL_TIME(22,31,30.,#10) ;
#10=COORDINATED_UNIVERSAL_TIME_OFFSET(0,0,.AHEAD.) ;
#86=ORIENTED_EDGE('',*,*,#65,.F.) ;
#87=ORIENTED_EDGE('',*,*,#72,.T.) ;
#88=ORIENTED_EDGE('',*,*,#79,.T.) ;
#89=ORIENTED_EDGE('',*,*,#84,.F.) ;
#117=ORIENTED_EDGE('',*,*,#79,.F.) ;
#118=ORIENTED_EDGE('',*,*,#103,.T.) ;
#119=ORIENTED_EDGE('',*,*,#110,.T.) ;
#120=ORIENTED_EDGE('',*,*,#115,.F.) ;
#143=ORIENTED_EDGE('',*,*,#110,.F.) ;
#144=ORIENTED_EDGE('',*,*,#129,.T.) ;
#145=ORIENTED_EDGE('',*,*,#136,.T.) ;
#146=ORIENTED_EDGE('',*,*,#141,.F.) ;
#174=ORIENTED_EDGE('',*,*,#136,.F.) ;
#175=ORIENTED_EDGE('',*,*,#160,.T.) ;
#176=ORIENTED_EDGE('',*,*,#167,.T.) ;
#177=ORIENTED_EDGE('',*,*,#172,.F.) ;
#205=ORIENTED_EDGE('',*,*,#167,.F.) ;
#206=ORIENTED_EDGE('',*,*,#191,.T.) ;
#207=ORIENTED_EDGE('',*,*,#198,.T.) ;
#208=ORIENTED_EDGE('',*,*,#203,.F.) ;
#222=ORIENTED_EDGE('',*,*,#198,.F.) ;
#223=ORIENTED_EDGE('',*,*,#215,.T.) ;
#224=ORIENTED_EDGE('',*,*,#65,.T.) ;
#225=ORIENTED_EDGE('',*,*,#220,.F.) ;
#262=ORIENTED_EDGE('',*,*,#241,.T.) ;
#263=ORIENTED_EDGE('',*,*,#248,.F.) ;
#264=ORIENTED_EDGE('',*,*,#255,.F.) ;
#265=ORIENTED_EDGE('',*,*,#260,.T.) ;
#279=ORIENTED_EDGE('',*,*,#272,.T.) ;
#280=ORIENTED_EDGE('',*,*,#260,.F.) ;
#281=ORIENTED_EDGE('',*,*,#277,.F.) ;
#282=ORIENTED_EDGE('',*,*,#248,.T.) ;
#319=ORIENTED_EDGE('',*,*,#298,.T.) ;
#320=ORIENTED_EDGE('',*,*,#305,.F.) ;
#321=ORIENTED_EDGE('',*,*,#312,.F.) ;
#322=ORIENTED_EDGE('',*,*,#317,.T.) ;
#336=ORIENTED_EDGE('',*,*,#329,.T.) ;
#337=ORIENTED_EDGE('',*,*,#317,.F.) ;
#338=ORIENTED_EDGE('',*,*,#334,.F.) ;
#339=ORIENTED_EDGE('',*,*,#305,.T.) ;
#376=ORIENTED_EDGE('',*,*,#355,.T.) ;
#377=ORIENTED_EDGE('',*,*,#362,.F.) ;
#378=ORIENTED_EDGE('',*,*,#369,.F.) ;
#379=ORIENTED_EDGE('',*,*,#374,.T.) ;
#393=ORIENTED_EDGE('',*,*,#386,.T.) ;
#394=ORIENTED_EDGE('',*,*,#374,.F.) ;
#395=ORIENTED_EDGE('',*,*,#391,.F.) ;
#396=ORIENTED_EDGE('',*,*,#362,.T.) ;
#405=ORIENTED_EDGE('',*,*,#215,.F.) ;
#406=ORIENTED_EDGE('',*,*,#191,.F.) ;
#407=ORIENTED_EDGE('',*,*,#160,.F.) ;
#408=ORIENTED_EDGE('',*,*,#129,.F.) ;
#409=ORIENTED_EDGE('',*,*,#103,.F.) ;
#410=ORIENTED_EDGE('',*,*,#72,.F.) ;
#413=ORIENTED_EDGE('',*,*,#277,.T.) ;
#414=ORIENTED_EDGE('',*,*,#255,.T.) ;
#417=ORIENTED_EDGE('',*,*,#334,.T.) ;
#418=ORIENTED_EDGE('',*,*,#312,.T.) ;
#421=ORIENTED_EDGE('',*,*,#391,.T.) ;
#422=ORIENTED_EDGE('',*,*,#369,.T.) ;
#431=ORIENTED_EDGE('',*,*,#84,.T.) ;
#432=ORIENTED_EDGE('',*,*,#115,.T.) ;
#433=ORIENTED_EDGE('',*,*,#141,.T.) ;
#434=ORIENTED_EDGE('',*,*,#172,.T.) ;
#435=ORIENTED_EDGE('',*,*,#203,.T.) ;
#436=ORIENTED_EDGE('',*,*,#220,.T.) ;
#439=ORIENTED_EDGE('',*,*,#241,.F.) ;
#440=ORIENTED_EDGE('',*,*,#272,.F.) ;
#443=ORIENTED_EDGE('',*,*,#298,.F.) ;
#444=ORIENTED_EDGE('',*,*,#329,.F.) ;
#447=ORIENTED_EDGE('',*,*,#355,.F.) ;
#448=ORIENTED_EDGE('',*,*,#386,.F.) ;
#415=FACE_BOUND('',#412,.T.) ;
#419=FACE_BOUND('',#416,.T.) ;
#423=FACE_BOUND('',#420,.T.) ;
#441=FACE_BOUND('',#438,.T.) ;
#445=FACE_BOUND('',#442,.T.) ;
#449=FACE_BOUND('',#446,.T.) ;
#51=CLOSED_SHELL('Closed Shell',(#91,#122,#148,#179,#210,#227,#267,#284,#324,#341,#381,#398,#424,#450)) ;
#59=VECTOR('Line Direction',#58,1.) ;
#75=VECTOR('Line Direction',#74,1.) ;
#99=VECTOR('Line Direction',#98,1.) ;
#106=VECTOR('Line Direction',#105,1.) ;
#113=VECTOR('Line Direction',#112,1.) ;
#125=VECTOR('Line Direction',#124,1.) ;
#132=VECTOR('Line Direction',#131,1.) ;
#139=VECTOR('Line Direction',#138,1.) ;
#163=VECTOR('Line Direction',#162,1.) ;
#187=VECTOR('Line Direction',#186,1.) ;
#194=VECTOR('Line Direction',#193,1.) ;
#201=VECTOR('Line Direction',#200,1.) ;
#213=VECTOR('Line Direction',#212,1.) ;
#218=VECTOR('Line Direction',#217,1.) ;
#244=VECTOR('Line Direction',#243,1.) ;
#258=VECTOR('Line Direction',#257,1.) ;
#301=VECTOR('Line Direction',#300,1.) ;
#315=VECTOR('Line Direction',#314,1.) ;
#358=VECTOR('Line Direction',#357,1.) ;
#372=VECTOR('Line Direction',#371,1.) ;
#452=ADVANCED_BREP_SHAPE_REPRESENTATION('NONE',(#451),#46) ;
#49=SHAPE_REPRESENTATION(' ',(#48),#46) ;
#91=ADVANCED_FACE('',(#90),#56,.T.) ;
#122=ADVANCED_FACE('',(#121),#96,.F.) ;
#148=ADVANCED_FACE('',(#147),#96,.F.) ;
#179=ADVANCED_FACE('',(#178),#153,.T.) ;
#210=ADVANCED_FACE('',(#209),#184,.F.) ;
#227=ADVANCED_FACE('',(#226),#184,.F.) ;
#267=ADVANCED_FACE('',(#266),#232,.F.) ;
#284=ADVANCED_FACE('',(#283),#232,.F.) ;
#324=ADVANCED_FACE('',(#323),#289,.F.) ;
#341=ADVANCED_FACE('',(#340),#289,.F.) ;
#381=ADVANCED_FACE('',(#380),#346,.F.) ;
#398=ADVANCED_FACE('',(#397),#346,.F.) ;
#424=ADVANCED_FACE('',(#411,#415,#419,#423),#403,.F.) ;
#450=ADVANCED_FACE('',(#437,#441,#445,#449),#429,.T.) ;
#4=APPLICATION_PROTOCOL_DEFINITION('international standard','config_control_design',1994,#1) ;
#32=APPROVAL_DATE_TIME(#13,#21) ;
#451=MANIFOLD_SOLID_BREP('Corps principal',#51) ;
#11=CALENDAR_DATE(2018,12,6) ;
#30=CC_DESIGN_APPROVAL(#21,(#16,#6,#14)) ;
#18=CC_DESIGN_DATE_AND_TIME_ASSIGNMENT(#13,#17,(#16)) ;
#29=CC_DESIGN_DATE_AND_TIME_ASSIGNMENT(#13,#28,(#14)) ;
#17=DATE_TIME_ROLE('classification_date') ;
#28=DATE_TIME_ROLE('creation_date') ;
#27=CC_DESIGN_PERSON_AND_ORGANIZATION_ASSIGNMENT(#25,#26,(#16)) ;
#33=CC_DESIGN_PERSON_AND_ORGANIZATION_ASSIGNMENT(#25,#34,(#6)) ;
#35=CC_DESIGN_PERSON_AND_ORGANIZATION_ASSIGNMENT(#25,#36,(#6,#14)) ;
#37=CC_DESIGN_PERSON_AND_ORGANIZATION_ASSIGNMENT(#25,#38,(#5)) ;
#26=PERSON_AND_ORGANIZATION_ROLE('classification_officer') ;
#34=PERSON_AND_ORGANIZATION_ROLE('design_supplier') ;
#36=PERSON_AND_ORGANIZATION_ROLE('creator') ;
#38=PERSON_AND_ORGANIZATION_ROLE('design_owner') ;
#39=CC_DESIGN_SECURITY_CLASSIFICATION(#16,(#6)) ;
#69=CIRCLE('generated circle',#68,4.) ;
#83=CIRCLE('generated circle',#82,4.) ;
#157=CIRCLE('generated circle',#156,4.) ;
#171=CIRCLE('generated circle',#170,4.) ;
#236=CIRCLE('generated circle',#235,2.) ;
#252=CIRCLE('generated circle',#251,2.) ;
#271=CIRCLE('generated circle',#270,2.) ;
#276=CIRCLE('generated circle',#275,2.) ;
#293=CIRCLE('generated circle',#292,2.) ;
#309=CIRCLE('generated circle',#308,2.) ;
#328=CIRCLE('generated circle',#327,2.) ;
#333=CIRCLE('generated circle',#332,2.) ;
#350=CIRCLE('generated circle',#349,1.75) ;
#366=CIRCLE('generated circle',#365,1.75) ;
#385=CIRCLE('generated circle',#384,1.75) ;
#390=CIRCLE('generated circle',#389,1.75) ;
#453=SHAPE_REPRESENTATION_RELATIONSHIP(' ',' ',#49,#452) ;
#56=CYLINDRICAL_SURFACE('generated cylinder',#55,4.) ;
#153=CYLINDRICAL_SURFACE('generated cylinder',#152,4.) ;
#232=CYLINDRICAL_SURFACE('generated cylinder',#231,2.) ;
#289=CYLINDRICAL_SURFACE('generated cylinder',#288,2.) ;
#346=CYLINDRICAL_SURFACE('generated cylinder',#345,1.75) ;
#3=DESIGN_CONTEXT(' ',#1,'design') ;
#65=EDGE_CURVE('',#62,#64,#60,.T.) ;
#72=EDGE_CURVE('',#62,#71,#69,.T.) ;
#79=EDGE_CURVE('',#71,#78,#76,.T.) ;
#84=EDGE_CURVE('',#64,#78,#83,.T.) ;
#103=EDGE_CURVE('',#71,#102,#100,.F.) ;
#110=EDGE_CURVE('',#102,#109,#107,.T.) ;
#115=EDGE_CURVE('',#78,#109,#114,.F.) ;
#129=EDGE_CURVE('',#102,#128,#126,.F.) ;
#136=EDGE_CURVE('',#128,#135,#133,.T.) ;
#141=EDGE_CURVE('',#109,#135,#140,.F.) ;
#160=EDGE_CURVE('',#128,#159,#157,.T.) ;
#167=EDGE_CURVE('',#159,#166,#164,.T.) ;
#172=EDGE_CURVE('',#135,#166,#171,.T.) ;
#191=EDGE_CURVE('',#159,#190,#188,.F.) ;
#198=EDGE_CURVE('',#190,#197,#195,.T.) ;
#203=EDGE_CURVE('',#166,#197,#202,.F.) ;
#215=EDGE_CURVE('',#190,#62,#214,.F.) ;
#220=EDGE_CURVE('',#197,#64,#219,.F.) ;
#241=EDGE_CURVE('',#238,#240,#236,.T.) ;
#248=EDGE_CURVE('',#247,#240,#245,.T.) ;
#255=EDGE_CURVE('',#254,#247,#252,.T.) ;
#260=EDGE_CURVE('',#254,#238,#259,.T.) ;
#272=EDGE_CURVE('',#240,#238,#271,.T.) ;
#277=EDGE_CURVE('',#247,#254,#276,.T.) ;
#298=EDGE_CURVE('',#295,#297,#293,.T.) ;
#305=EDGE_CURVE('',#304,#297,#302,.T.) ;
#312=EDGE_CURVE('',#311,#304,#309,.T.) ;
#317=EDGE_CURVE('',#311,#295,#316,.T.) ;
#329=EDGE_CURVE('',#297,#295,#328,.T.) ;
#334=EDGE_CURVE('',#304,#311,#333,.T.) ;
#355=EDGE_CURVE('',#352,#354,#350,.T.) ;
#362=EDGE_CURVE('',#361,#354,#359,.T.) ;
#369=EDGE_CURVE('',#368,#361,#366,.T.) ;
#374=EDGE_CURVE('',#368,#352,#373,.T.) ;
#386=EDGE_CURVE('',#354,#352,#385,.T.) ;
#391=EDGE_CURVE('',#361,#368,#390,.T.) ;
#85=EDGE_LOOP('',(#86,#87,#88,#89)) ;
#116=EDGE_LOOP('',(#117,#118,#119,#120)) ;
#142=EDGE_LOOP('',(#143,#144,#145,#146)) ;
#173=EDGE_LOOP('',(#174,#175,#176,#177)) ;
#204=EDGE_LOOP('',(#205,#206,#207,#208)) ;
#221=EDGE_LOOP('',(#222,#223,#224,#225)) ;
#261=EDGE_LOOP('',(#262,#263,#264,#265)) ;
#278=EDGE_LOOP('',(#279,#280,#281,#282)) ;
#318=EDGE_LOOP('',(#319,#320,#321,#322)) ;
#335=EDGE_LOOP('',(#336,#337,#338,#339)) ;
#375=EDGE_LOOP('',(#376,#377,#378,#379)) ;
#392=EDGE_LOOP('',(#393,#394,#395,#396)) ;
#404=EDGE_LOOP('',(#405,#406,#407,#408,#409,#410)) ;
#412=EDGE_LOOP('',(#413,#414)) ;
#416=EDGE_LOOP('',(#417,#418)) ;
#420=EDGE_LOOP('',(#421,#422)) ;
#430=EDGE_LOOP('',(#431,#432,#433,#434,#435,#436)) ;
#438=EDGE_LOOP('',(#439,#440)) ;
#442=EDGE_LOOP('',(#443,#444)) ;
#446=EDGE_LOOP('',(#447,#448)) ;
#90=FACE_OUTER_BOUND('',#85,.T.) ;
#121=FACE_OUTER_BOUND('',#116,.T.) ;
#147=FACE_OUTER_BOUND('',#142,.T.) ;
#178=FACE_OUTER_BOUND('',#173,.T.) ;
#209=FACE_OUTER_BOUND('',#204,.T.) ;
#226=FACE_OUTER_BOUND('',#221,.T.) ;
#266=FACE_OUTER_BOUND('',#261,.T.) ;
#283=FACE_OUTER_BOUND('',#278,.T.) ;
#323=FACE_OUTER_BOUND('',#318,.T.) ;
#340=FACE_OUTER_BOUND('',#335,.T.) ;
#380=FACE_OUTER_BOUND('',#375,.T.) ;
#397=FACE_OUTER_BOUND('',#392,.T.) ;
#411=FACE_OUTER_BOUND('',#404,.T.) ;
#437=FACE_OUTER_BOUND('',#430,.T.) ;
#45=UNCERTAINTY_MEASURE_WITH_UNIT(LENGTH_MEASURE(0.005),#41,'distance_accuracy_value','CONFUSED CURVE UNCERTAINTY') ;
#60=LINE('Line',#57,#59) ;
#76=LINE('Line',#73,#75) ;
#100=LINE('Line',#97,#99) ;
#107=LINE('Line',#104,#106) ;
#114=LINE('Line',#111,#113) ;
#126=LINE('Line',#123,#125) ;
#133=LINE('Line',#130,#132) ;
#140=LINE('Line',#137,#139) ;
#164=LINE('Line',#161,#163) ;
#188=LINE('Line',#185,#187) ;
#195=LINE('Line',#192,#194) ;
#202=LINE('Line',#199,#201) ;
#214=LINE('Line',#211,#213) ;
#219=LINE('Line',#216,#218) ;
#245=LINE('Line',#242,#244) ;
#259=LINE('Line',#256,#258) ;
#302=LINE('Line',#299,#301) ;
#316=LINE('Line',#313,#315) ;
#359=LINE('Line',#356,#358) ;
#373=LINE('Line',#370,#372) ;
#2=MECHANICAL_CONTEXT(' ',#1,'mechanical') ;
#24=PERSONAL_ADDRESS(' ',' ',' ',' ',' ',' ',' ',' ',' ',' ',' ',' ',(#22),' ') ;
#96=PLANE('Plane',#95) ;
#184=PLANE('Plane',#183) ;
#403=PLANE('Plane',#402) ;
#429=PLANE('Plane',#428) ;
#43=PLANE_ANGLE_MEASURE_WITH_UNIT(PLANE_ANGLE_MEASURE(0.0174532925199),#42) ;
#7=PRODUCT_CATEGORY('part',$) ;
#9=PRODUCT_CATEGORY_RELATIONSHIP(' ',' ',#7,#8) ;
#6=PRODUCT_DEFINITION_FORMATION_WITH_SPECIFIED_SOURCE('',' ',#5,.NOT_KNOWN.) ;
#8=PRODUCT_RELATED_PRODUCT_CATEGORY('detail',$,(#5)) ;
#50=SHAPE_DEFINITION_REPRESENTATION(#40,#49) ;
#62=VERTEX_POINT('',#61) ;
#64=VERTEX_POINT('',#63) ;
#71=VERTEX_POINT('',#70) ;
#78=VERTEX_POINT('',#77) ;
#102=VERTEX_POINT('',#101) ;
#109=VERTEX_POINT('',#108) ;
#128=VERTEX_POINT('',#127) ;
#135=VERTEX_POINT('',#134) ;
#159=VERTEX_POINT('',#158) ;
#166=VERTEX_POINT('',#165) ;
#190=VERTEX_POINT('',#189) ;
#197=VERTEX_POINT('',#196) ;
#238=VERTEX_POINT('',#237) ;
#240=VERTEX_POINT('',#239) ;
#247=VERTEX_POINT('',#246) ;
#254=VERTEX_POINT('',#253) ;
#295=VERTEX_POINT('',#294) ;
#297=VERTEX_POINT('',#296) ;
#304=VERTEX_POINT('',#303) ;
#311=VERTEX_POINT('',#310) ;
#352=VERTEX_POINT('',#351) ;
#354=VERTEX_POINT('',#353) ;
#361=VERTEX_POINT('',#360) ;
#368=VERTEX_POINT('',#367) ;
#41=(LENGTH_UNIT()NAMED_UNIT(*)SI_UNIT(.MILLI.,.METRE.)) ;
#42=(NAMED_UNIT(*)PLANE_ANGLE_UNIT()SI_UNIT($,.RADIAN.)) ;
#44=(NAMED_UNIT(*)SI_UNIT($,.STERADIAN.)SOLID_ANGLE_UNIT()) ;
#46=(GEOMETRIC_REPRESENTATION_CONTEXT(3)GLOBAL_UNCERTAINTY_ASSIGNED_CONTEXT((#45))GLOBAL_UNIT_ASSIGNED_CONTEXT((#41,#42,#44))REPRESENTATION_CONTEXT(' ',' ')) ;
ENDSEC;
END-ISO-10303-21;
