ISO-10303-21;
HEADER;
FILE_DESCRIPTION(('CATIA V5 STEP Exchange'),'2;1');

FILE_NAME('C:\\Users\\godef\\Documents\\PV3e Saison 2018\\CAO\\transmission_roue_libre\\step\\capot_gauche.stp','2018-06-03T13:08:31+00:00',('none'),('none'),'CATIA Version 5 Release 20 GA (IN-10)','CATIA V5 STEP AP203','none');

FILE_SCHEMA(('CONFIG_CONTROL_DESIGN'));

ENDSEC;
/* file written by CATIA V5R20 */
DATA;
#5=PRODUCT('Capot_support_axe_arr','','',(#2)) ;
#1=APPLICATION_CONTEXT('configuration controlled 3D design of mechanical parts and assemblies') ;
#14=PRODUCT_DEFINITION('',' ',#6,#3) ;
#16=SECURITY_CLASSIFICATION(' ',' ',#15) ;
#15=SECURITY_CLASSIFICATION_LEVEL('unclassified') ;
#47=CARTESIAN_POINT(' ',(0.,0.,0.)) ;
#52=CARTESIAN_POINT('Axis2P3D Location',(12.3890537966,-9.25,28.9)) ;
#57=CARTESIAN_POINT('Line Origine',(10.1950973919,-8.05143615349,24.1550000002)) ;
#61=CARTESIAN_POINT('Vertex',(10.1950973919,-8.05143615349,23.)) ;
#63=CARTESIAN_POINT('Vertex',(10.1950973919,-8.05143615349,29.)) ;
#66=CARTESIAN_POINT('Axis2P3D Location',(12.3890537966,-9.25,23.)) ;
#70=CARTESIAN_POINT('Vertex',(14.5830102013,-10.4485638465,23.)) ;
#73=CARTESIAN_POINT('Line Origine',(14.5830102013,-10.4485638465,24.1550000002)) ;
#77=CARTESIAN_POINT('Vertex',(14.5830102013,-10.4485638465,29.)) ;
#80=CARTESIAN_POINT('Axis2P3D Location',(12.3890537966,-9.25,29.)) ;
#92=CARTESIAN_POINT('Axis2P3D Location',(7.38905379661,13.5,29.)) ;
#97=CARTESIAN_POINT('Line Origine',(12.3890537966,13.5,29.)) ;
#101=CARTESIAN_POINT('Vertex',(7.38905379661,13.5,29.)) ;
#103=CARTESIAN_POINT('Vertex',(17.3890537966,13.5,29.)) ;
#106=CARTESIAN_POINT('Line Origine',(7.38905379661,1.7763568394E-015,29.)) ;
#110=CARTESIAN_POINT('Vertex',(7.38905379661,-13.5,29.)) ;
#113=CARTESIAN_POINT('Line Origine',(12.3890537966,-13.5,29.)) ;
#117=CARTESIAN_POINT('Vertex',(17.3890537966,-13.5,29.)) ;
#120=CARTESIAN_POINT('Line Origine',(17.3890537966,1.7763568394E-015,29.)) ;
#131=CARTESIAN_POINT('Axis2P3D Location',(12.3890537966,-9.25,29.)) ;
#140=CARTESIAN_POINT('Axis2P3D Location',(12.3890537966,9.25,29.)) ;
#144=CARTESIAN_POINT('Vertex',(10.1950973919,10.4485638465,29.)) ;
#146=CARTESIAN_POINT('Vertex',(14.5830102013,8.05143615349,29.)) ;
#149=CARTESIAN_POINT('Axis2P3D Location',(12.3890537966,9.25,29.)) ;
#159=CARTESIAN_POINT('Axis2P3D Location',(12.3890537966,-9.25,23.)) ;
#171=CARTESIAN_POINT('Axis2P3D Location',(7.38905379661,-13.5,23.)) ;
#176=CARTESIAN_POINT('Line Origine',(12.3890537966,-13.5,23.)) ;
#180=CARTESIAN_POINT('Vertex',(7.38905379661,-13.5,23.)) ;
#182=CARTESIAN_POINT('Vertex',(17.3890537966,-13.5,23.)) ;
#185=CARTESIAN_POINT('Line Origine',(7.38905379661,-9.25,23.)) ;
#189=CARTESIAN_POINT('Vertex',(7.38905379661,-5.,23.)) ;
#192=CARTESIAN_POINT('Line Origine',(12.3890537966,-5.,23.)) ;
#196=CARTESIAN_POINT('Vertex',(17.3890537966,-5.,23.)) ;
#199=CARTESIAN_POINT('Line Origine',(17.3890537966,-9.25,23.)) ;
#215=CARTESIAN_POINT('Axis2P3D Location',(7.38905379661,0.,0.)) ;
#220=CARTESIAN_POINT('Line Origine',(7.38905379661,13.5,26.)) ;
#224=CARTESIAN_POINT('Vertex',(7.38905379661,13.5,23.)) ;
#227=CARTESIAN_POINT('Line Origine',(7.38905379661,9.25,23.)) ;
#231=CARTESIAN_POINT('Vertex',(7.38905379661,5.,23.)) ;
#234=CARTESIAN_POINT('Line Origine',(7.38905379661,5.,23.5)) ;
#238=CARTESIAN_POINT('Vertex',(7.38905379661,5.,24.)) ;
#241=CARTESIAN_POINT('Axis2P3D Location',(7.38905379661,4.,24.)) ;
#245=CARTESIAN_POINT('Vertex',(7.38905379661,4.,25.)) ;
#248=CARTESIAN_POINT('Line Origine',(7.38905379661,2.,25.)) ;
#252=CARTESIAN_POINT('Vertex',(7.38905379661,0.,25.)) ;
#255=CARTESIAN_POINT('Line Origine',(7.38905379661,-2.,25.)) ;
#259=CARTESIAN_POINT('Vertex',(7.38905379661,-4.,25.)) ;
#262=CARTESIAN_POINT('Axis2P3D Location',(7.38905379661,-4.,24.)) ;
#266=CARTESIAN_POINT('Vertex',(7.38905379661,-5.,24.)) ;
#269=CARTESIAN_POINT('Line Origine',(7.38905379661,-5.,23.5)) ;
#274=CARTESIAN_POINT('Line Origine',(7.38905379661,-13.5,26.)) ;
#293=CARTESIAN_POINT('Axis2P3D Location',(7.38905379661,-13.5,29.)) ;
#298=CARTESIAN_POINT('Line Origine',(17.3890537966,-13.5,26.)) ;
#310=CARTESIAN_POINT('Axis2P3D Location',(7.38905379661,-5.,23.)) ;
#315=CARTESIAN_POINT('Line Origine',(12.3890537966,-5.,24.)) ;
#319=CARTESIAN_POINT('Vertex',(17.3890537966,-5.,24.)) ;
#322=CARTESIAN_POINT('Line Origine',(17.3890537966,-5.,23.5)) ;
#334=CARTESIAN_POINT('Line Origine',(12.3890537966,5.,23.)) ;
#338=CARTESIAN_POINT('Vertex',(17.3890537966,5.,23.)) ;
#341=CARTESIAN_POINT('Line Origine',(12.3890537966,13.5,23.)) ;
#345=CARTESIAN_POINT('Vertex',(17.3890537966,13.5,23.)) ;
#348=CARTESIAN_POINT('Line Origine',(17.3890537966,9.25,23.)) ;
#359=CARTESIAN_POINT('Axis2P3D Location',(12.3890537966,9.25,23.)) ;
#363=CARTESIAN_POINT('Vertex',(14.5830102013,8.05143615349,23.)) ;
#365=CARTESIAN_POINT('Vertex',(10.1950973919,10.4485638465,23.)) ;
#368=CARTESIAN_POINT('Axis2P3D Location',(12.3890537966,9.25,23.)) ;
#378=CARTESIAN_POINT('Axis2P3D Location',(7.38905379661,5.,23.)) ;
#383=CARTESIAN_POINT('Line Origine',(12.3890537966,5.,24.)) ;
#387=CARTESIAN_POINT('Vertex',(17.3890537966,5.,24.)) ;
#390=CARTESIAN_POINT('Line Origine',(17.3890537966,5.,23.5)) ;
#402=CARTESIAN_POINT('Axis2P3D Location',(12.3890537966,4.,24.)) ;
#407=CARTESIAN_POINT('Line Origine',(12.3890537966,4.,25.)) ;
#411=CARTESIAN_POINT('Vertex',(17.3890537966,4.,25.)) ;
#414=CARTESIAN_POINT('Axis2P3D Location',(17.3890537966,4.,24.)) ;
#426=CARTESIAN_POINT('Axis2P3D Location',(7.38905379661,-4.,25.)) ;
#431=CARTESIAN_POINT('Line Origine',(12.3890537966,0.,25.)) ;
#435=CARTESIAN_POINT('Vertex',(17.3890537966,0.,25.)) ;
#438=CARTESIAN_POINT('Line Origine',(17.3890537966,2.,25.)) ;
#450=CARTESIAN_POINT('Line Origine',(12.3890537966,-4.,25.)) ;
#454=CARTESIAN_POINT('Vertex',(17.3890537966,-4.,25.)) ;
#457=CARTESIAN_POINT('Line Origine',(17.3890537966,-2.,25.)) ;
#469=CARTESIAN_POINT('Axis2P3D Location',(12.3890537966,-4.,24.)) ;
#474=CARTESIAN_POINT('Axis2P3D Location',(17.3890537966,-4.,24.)) ;
#486=CARTESIAN_POINT('Axis2P3D Location',(12.3890537966,9.25,28.9)) ;
#491=CARTESIAN_POINT('Line Origine',(10.1950973919,10.4485638465,24.1550000002)) ;
#496=CARTESIAN_POINT('Line Origine',(14.5830102013,8.05143615349,24.1550000002)) ;
#515=CARTESIAN_POINT('Axis2P3D Location',(17.3890537966,0.,0.)) ;
#520=CARTESIAN_POINT('Line Origine',(17.3890537966,13.5,26.)) ;
#539=CARTESIAN_POINT('Axis2P3D Location',(7.38905379661,13.5,29.)) ;
#53=DIRECTION('Axis2P3D Direction',(0.,0.,-1.)) ;
#54=DIRECTION('Axis2P3D XDirection',(0.87758256189,-0.479425538604,0.)) ;
#58=DIRECTION('Vector Direction',(0.,0.,-1.)) ;
#67=DIRECTION('Axis2P3D Direction',(0.,0.,-1.)) ;
#74=DIRECTION('Vector Direction',(0.,0.,-1.)) ;
#81=DIRECTION('Axis2P3D Direction',(0.,0.,-1.)) ;
#93=DIRECTION('Axis2P3D Direction',(-0.,0.,1.)) ;
#94=DIRECTION('Axis2P3D XDirection',(0.,-1.,0.)) ;
#98=DIRECTION('Vector Direction',(1.,0.,0.)) ;
#107=DIRECTION('Vector Direction',(0.,-1.,0.)) ;
#114=DIRECTION('Vector Direction',(1.,0.,0.)) ;
#121=DIRECTION('Vector Direction',(0.,-1.,0.)) ;
#132=DIRECTION('Axis2P3D Direction',(-0.,0.,1.)) ;
#141=DIRECTION('Axis2P3D Direction',(-0.,0.,1.)) ;
#150=DIRECTION('Axis2P3D Direction',(-0.,0.,1.)) ;
#160=DIRECTION('Axis2P3D Direction',(0.,0.,-1.)) ;
#172=DIRECTION('Axis2P3D Direction',(0.,0.,-1.)) ;
#173=DIRECTION('Axis2P3D XDirection',(0.,1.,0.)) ;
#177=DIRECTION('Vector Direction',(1.,0.,0.)) ;
#186=DIRECTION('Vector Direction',(0.,1.,0.)) ;
#193=DIRECTION('Vector Direction',(1.,0.,0.)) ;
#200=DIRECTION('Vector Direction',(0.,1.,0.)) ;
#216=DIRECTION('Axis2P3D Direction',(1.,0.,0.)) ;
#217=DIRECTION('Axis2P3D XDirection',(0.,1.,0.)) ;
#221=DIRECTION('Vector Direction',(0.,0.,-1.)) ;
#228=DIRECTION('Vector Direction',(0.,-1.,0.)) ;
#235=DIRECTION('Vector Direction',(0.,0.,1.)) ;
#242=DIRECTION('Axis2P3D Direction',(1.,0.,0.)) ;
#249=DIRECTION('Vector Direction',(0.,-1.,0.)) ;
#256=DIRECTION('Vector Direction',(0.,1.,0.)) ;
#263=DIRECTION('Axis2P3D Direction',(1.,0.,0.)) ;
#270=DIRECTION('Vector Direction',(0.,0.,1.)) ;
#275=DIRECTION('Vector Direction',(0.,0.,-1.)) ;
#294=DIRECTION('Axis2P3D Direction',(0.,-1.,0.)) ;
#295=DIRECTION('Axis2P3D XDirection',(0.,0.,-1.)) ;
#299=DIRECTION('Vector Direction',(0.,0.,-1.)) ;
#311=DIRECTION('Axis2P3D Direction',(0.,1.,0.)) ;
#312=DIRECTION('Axis2P3D XDirection',(0.,0.,1.)) ;
#316=DIRECTION('Vector Direction',(1.,0.,0.)) ;
#323=DIRECTION('Vector Direction',(0.,0.,1.)) ;
#335=DIRECTION('Vector Direction',(1.,0.,0.)) ;
#342=DIRECTION('Vector Direction',(1.,0.,0.)) ;
#349=DIRECTION('Vector Direction',(0.,-1.,0.)) ;
#360=DIRECTION('Axis2P3D Direction',(0.,0.,-1.)) ;
#369=DIRECTION('Axis2P3D Direction',(0.,0.,-1.)) ;
#379=DIRECTION('Axis2P3D Direction',(0.,1.,0.)) ;
#380=DIRECTION('Axis2P3D XDirection',(0.,0.,1.)) ;
#384=DIRECTION('Vector Direction',(1.,0.,0.)) ;
#391=DIRECTION('Vector Direction',(0.,0.,1.)) ;
#403=DIRECTION('Axis2P3D Direction',(1.,0.,0.)) ;
#404=DIRECTION('Axis2P3D XDirection',(0.,1.,0.)) ;
#408=DIRECTION('Vector Direction',(1.,0.,0.)) ;
#415=DIRECTION('Axis2P3D Direction',(1.,0.,0.)) ;
#427=DIRECTION('Axis2P3D Direction',(0.,0.,-1.)) ;
#428=DIRECTION('Axis2P3D XDirection',(0.,1.,0.)) ;
#432=DIRECTION('Vector Direction',(1.,0.,0.)) ;
#439=DIRECTION('Vector Direction',(0.,-1.,0.)) ;
#451=DIRECTION('Vector Direction',(1.,0.,0.)) ;
#458=DIRECTION('Vector Direction',(0.,1.,0.)) ;
#470=DIRECTION('Axis2P3D Direction',(1.,0.,0.)) ;
#471=DIRECTION('Axis2P3D XDirection',(0.,5.05321549807E-016,1.)) ;
#475=DIRECTION('Axis2P3D Direction',(1.,0.,0.)) ;
#487=DIRECTION('Axis2P3D Direction',(0.,0.,-1.)) ;
#488=DIRECTION('Axis2P3D XDirection',(0.87758256189,-0.479425538604,0.)) ;
#492=DIRECTION('Vector Direction',(0.,0.,-1.)) ;
#497=DIRECTION('Vector Direction',(0.,0.,-1.)) ;
#516=DIRECTION('Axis2P3D Direction',(1.,0.,0.)) ;
#517=DIRECTION('Axis2P3D XDirection',(0.,1.,0.)) ;
#521=DIRECTION('Vector Direction',(0.,0.,-1.)) ;
#540=DIRECTION('Axis2P3D Direction',(0.,-1.,0.)) ;
#541=DIRECTION('Axis2P3D XDirection',(0.,0.,-1.)) ;
#48=AXIS2_PLACEMENT_3D(' ',#47,$,$) ;
#55=AXIS2_PLACEMENT_3D('Cylinder Axis2P3D',#52,#53,#54) ;
#68=AXIS2_PLACEMENT_3D('Circle Axis2P3D',#66,#67,$) ;
#82=AXIS2_PLACEMENT_3D('Circle Axis2P3D',#80,#81,$) ;
#95=AXIS2_PLACEMENT_3D('Plane Axis2P3D',#92,#93,#94) ;
#133=AXIS2_PLACEMENT_3D('Circle Axis2P3D',#131,#132,$) ;
#142=AXIS2_PLACEMENT_3D('Circle Axis2P3D',#140,#141,$) ;
#151=AXIS2_PLACEMENT_3D('Circle Axis2P3D',#149,#150,$) ;
#161=AXIS2_PLACEMENT_3D('Circle Axis2P3D',#159,#160,$) ;
#174=AXIS2_PLACEMENT_3D('Plane Axis2P3D',#171,#172,#173) ;
#218=AXIS2_PLACEMENT_3D('Plane Axis2P3D',#215,#216,#217) ;
#243=AXIS2_PLACEMENT_3D('Circle Axis2P3D',#241,#242,$) ;
#264=AXIS2_PLACEMENT_3D('Circle Axis2P3D',#262,#263,$) ;
#296=AXIS2_PLACEMENT_3D('Plane Axis2P3D',#293,#294,#295) ;
#313=AXIS2_PLACEMENT_3D('Plane Axis2P3D',#310,#311,#312) ;
#361=AXIS2_PLACEMENT_3D('Circle Axis2P3D',#359,#360,$) ;
#370=AXIS2_PLACEMENT_3D('Circle Axis2P3D',#368,#369,$) ;
#381=AXIS2_PLACEMENT_3D('Plane Axis2P3D',#378,#379,#380) ;
#405=AXIS2_PLACEMENT_3D('Cylinder Axis2P3D',#402,#403,#404) ;
#416=AXIS2_PLACEMENT_3D('Circle Axis2P3D',#414,#415,$) ;
#429=AXIS2_PLACEMENT_3D('Plane Axis2P3D',#426,#427,#428) ;
#472=AXIS2_PLACEMENT_3D('Cylinder Axis2P3D',#469,#470,#471) ;
#476=AXIS2_PLACEMENT_3D('Circle Axis2P3D',#474,#475,$) ;
#489=AXIS2_PLACEMENT_3D('Cylinder Axis2P3D',#486,#487,#488) ;
#518=AXIS2_PLACEMENT_3D('Plane Axis2P3D',#515,#516,#517) ;
#542=AXIS2_PLACEMENT_3D('Plane Axis2P3D',#539,#540,#541) ;
#40=PRODUCT_DEFINITION_SHAPE(' ',' ',#14) ;
#31=APPROVAL_PERSON_ORGANIZATION(#25,#21,#19) ;
#25=PERSON_AND_ORGANIZATION(#22,#23) ;
#22=PERSON(' ',' ',' ',$,$,$) ;
#23=ORGANIZATION(' ',' ',' ') ;
#21=APPROVAL(#20,' ') ;
#20=APPROVAL_STATUS('not_yet_approved') ;
#19=APPROVAL_ROLE('APPROVER') ;
#13=DATE_AND_TIME(#11,#12) ;
#12=LOCAL_TIME(15,8,31.,#10) ;
#10=COORDINATED_UNIVERSAL_TIME_OFFSET(0,0,.AHEAD.) ;
#86=ORIENTED_EDGE('',*,*,#65,.F.) ;
#87=ORIENTED_EDGE('',*,*,#72,.T.) ;
#88=ORIENTED_EDGE('',*,*,#79,.T.) ;
#89=ORIENTED_EDGE('',*,*,#84,.T.) ;
#126=ORIENTED_EDGE('',*,*,#105,.F.) ;
#127=ORIENTED_EDGE('',*,*,#112,.T.) ;
#128=ORIENTED_EDGE('',*,*,#119,.T.) ;
#129=ORIENTED_EDGE('',*,*,#124,.F.) ;
#137=ORIENTED_EDGE('',*,*,#135,.F.) ;
#138=ORIENTED_EDGE('',*,*,#84,.F.) ;
#155=ORIENTED_EDGE('',*,*,#148,.F.) ;
#156=ORIENTED_EDGE('',*,*,#153,.F.) ;
#165=ORIENTED_EDGE('',*,*,#79,.F.) ;
#166=ORIENTED_EDGE('',*,*,#163,.T.) ;
#167=ORIENTED_EDGE('',*,*,#65,.T.) ;
#168=ORIENTED_EDGE('',*,*,#135,.T.) ;
#205=ORIENTED_EDGE('',*,*,#184,.F.) ;
#206=ORIENTED_EDGE('',*,*,#191,.T.) ;
#207=ORIENTED_EDGE('',*,*,#198,.T.) ;
#208=ORIENTED_EDGE('',*,*,#203,.F.) ;
#211=ORIENTED_EDGE('',*,*,#163,.F.) ;
#212=ORIENTED_EDGE('',*,*,#72,.F.) ;
#280=ORIENTED_EDGE('',*,*,#226,.F.) ;
#281=ORIENTED_EDGE('',*,*,#233,.F.) ;
#282=ORIENTED_EDGE('',*,*,#240,.F.) ;
#283=ORIENTED_EDGE('',*,*,#247,.F.) ;
#284=ORIENTED_EDGE('',*,*,#254,.F.) ;
#285=ORIENTED_EDGE('',*,*,#261,.F.) ;
#286=ORIENTED_EDGE('',*,*,#268,.F.) ;
#287=ORIENTED_EDGE('',*,*,#273,.F.) ;
#288=ORIENTED_EDGE('',*,*,#191,.F.) ;
#289=ORIENTED_EDGE('',*,*,#278,.F.) ;
#290=ORIENTED_EDGE('',*,*,#112,.F.) ;
#304=ORIENTED_EDGE('',*,*,#119,.F.) ;
#305=ORIENTED_EDGE('',*,*,#278,.T.) ;
#306=ORIENTED_EDGE('',*,*,#184,.T.) ;
#307=ORIENTED_EDGE('',*,*,#302,.F.) ;
#328=ORIENTED_EDGE('',*,*,#198,.F.) ;
#329=ORIENTED_EDGE('',*,*,#273,.T.) ;
#330=ORIENTED_EDGE('',*,*,#321,.T.) ;
#331=ORIENTED_EDGE('',*,*,#326,.F.) ;
#354=ORIENTED_EDGE('',*,*,#340,.F.) ;
#355=ORIENTED_EDGE('',*,*,#233,.T.) ;
#356=ORIENTED_EDGE('',*,*,#347,.T.) ;
#357=ORIENTED_EDGE('',*,*,#352,.F.) ;
#374=ORIENTED_EDGE('',*,*,#367,.F.) ;
#375=ORIENTED_EDGE('',*,*,#372,.F.) ;
#396=ORIENTED_EDGE('',*,*,#389,.F.) ;
#397=ORIENTED_EDGE('',*,*,#240,.T.) ;
#398=ORIENTED_EDGE('',*,*,#340,.T.) ;
#399=ORIENTED_EDGE('',*,*,#394,.F.) ;
#420=ORIENTED_EDGE('',*,*,#413,.F.) ;
#421=ORIENTED_EDGE('',*,*,#247,.T.) ;
#422=ORIENTED_EDGE('',*,*,#389,.T.) ;
#423=ORIENTED_EDGE('',*,*,#418,.F.) ;
#444=ORIENTED_EDGE('',*,*,#437,.F.) ;
#445=ORIENTED_EDGE('',*,*,#254,.T.) ;
#446=ORIENTED_EDGE('',*,*,#413,.T.) ;
#447=ORIENTED_EDGE('',*,*,#442,.F.) ;
#463=ORIENTED_EDGE('',*,*,#456,.F.) ;
#464=ORIENTED_EDGE('',*,*,#261,.T.) ;
#465=ORIENTED_EDGE('',*,*,#437,.T.) ;
#466=ORIENTED_EDGE('',*,*,#461,.F.) ;
#480=ORIENTED_EDGE('',*,*,#321,.F.) ;
#481=ORIENTED_EDGE('',*,*,#268,.T.) ;
#482=ORIENTED_EDGE('',*,*,#456,.T.) ;
#483=ORIENTED_EDGE('',*,*,#478,.F.) ;
#502=ORIENTED_EDGE('',*,*,#495,.F.) ;
#503=ORIENTED_EDGE('',*,*,#372,.T.) ;
#504=ORIENTED_EDGE('',*,*,#500,.T.) ;
#505=ORIENTED_EDGE('',*,*,#153,.T.) ;
#509=ORIENTED_EDGE('',*,*,#500,.F.) ;
#510=ORIENTED_EDGE('',*,*,#367,.T.) ;
#511=ORIENTED_EDGE('',*,*,#495,.T.) ;
#512=ORIENTED_EDGE('',*,*,#148,.T.) ;
#526=ORIENTED_EDGE('',*,*,#124,.T.) ;
#527=ORIENTED_EDGE('',*,*,#302,.T.) ;
#528=ORIENTED_EDGE('',*,*,#203,.T.) ;
#529=ORIENTED_EDGE('',*,*,#326,.T.) ;
#530=ORIENTED_EDGE('',*,*,#478,.T.) ;
#531=ORIENTED_EDGE('',*,*,#461,.T.) ;
#532=ORIENTED_EDGE('',*,*,#442,.T.) ;
#533=ORIENTED_EDGE('',*,*,#418,.T.) ;
#534=ORIENTED_EDGE('',*,*,#394,.T.) ;
#535=ORIENTED_EDGE('',*,*,#352,.T.) ;
#536=ORIENTED_EDGE('',*,*,#524,.T.) ;
#545=ORIENTED_EDGE('',*,*,#347,.F.) ;
#546=ORIENTED_EDGE('',*,*,#226,.T.) ;
#547=ORIENTED_EDGE('',*,*,#105,.T.) ;
#548=ORIENTED_EDGE('',*,*,#524,.F.) ;
#139=FACE_BOUND('',#136,.T.) ;
#157=FACE_BOUND('',#154,.T.) ;
#213=FACE_BOUND('',#210,.T.) ;
#376=FACE_BOUND('',#373,.T.) ;
#51=CLOSED_SHELL('Closed Shell',(#91,#158,#170,#214,#292,#309,#333,#377,#401,#425,#449,#468,#485,#507,#514,#538,#550)) ;
#59=VECTOR('Line Direction',#58,1.) ;
#75=VECTOR('Line Direction',#74,1.) ;
#99=VECTOR('Line Direction',#98,1.) ;
#108=VECTOR('Line Direction',#107,1.) ;
#115=VECTOR('Line Direction',#114,1.) ;
#122=VECTOR('Line Direction',#121,1.) ;
#178=VECTOR('Line Direction',#177,1.) ;
#187=VECTOR('Line Direction',#186,1.) ;
#194=VECTOR('Line Direction',#193,1.) ;
#201=VECTOR('Line Direction',#200,1.) ;
#222=VECTOR('Line Direction',#221,1.) ;
#229=VECTOR('Line Direction',#228,1.) ;
#236=VECTOR('Line Direction',#235,1.) ;
#250=VECTOR('Line Direction',#249,1.) ;
#257=VECTOR('Line Direction',#256,1.) ;
#271=VECTOR('Line Direction',#270,1.) ;
#276=VECTOR('Line Direction',#275,1.) ;
#300=VECTOR('Line Direction',#299,1.) ;
#317=VECTOR('Line Direction',#316,1.) ;
#324=VECTOR('Line Direction',#323,1.) ;
#336=VECTOR('Line Direction',#335,1.) ;
#343=VECTOR('Line Direction',#342,1.) ;
#350=VECTOR('Line Direction',#349,1.) ;
#385=VECTOR('Line Direction',#384,1.) ;
#392=VECTOR('Line Direction',#391,1.) ;
#409=VECTOR('Line Direction',#408,1.) ;
#433=VECTOR('Line Direction',#432,1.) ;
#440=VECTOR('Line Direction',#439,1.) ;
#452=VECTOR('Line Direction',#451,1.) ;
#459=VECTOR('Line Direction',#458,1.) ;
#493=VECTOR('Line Direction',#492,1.) ;
#498=VECTOR('Line Direction',#497,1.) ;
#522=VECTOR('Line Direction',#521,1.) ;
#552=ADVANCED_BREP_SHAPE_REPRESENTATION('NONE',(#551),#46) ;
#49=SHAPE_REPRESENTATION(' ',(#48),#46) ;
#91=ADVANCED_FACE('Corps principal',(#90),#56,.F.) ;
#158=ADVANCED_FACE('Corps principal',(#130,#139,#157),#96,.T.) ;
#170=ADVANCED_FACE('Corps principal',(#169),#56,.F.) ;
#214=ADVANCED_FACE('Corps principal',(#209,#213),#175,.T.) ;
#292=ADVANCED_FACE('Corps principal',(#291),#219,.F.) ;
#309=ADVANCED_FACE('Corps principal',(#308),#297,.T.) ;
#333=ADVANCED_FACE('Corps principal',(#332),#314,.T.) ;
#377=ADVANCED_FACE('Corps principal',(#358,#376),#175,.T.) ;
#401=ADVANCED_FACE('Corps principal',(#400),#382,.F.) ;
#425=ADVANCED_FACE('Corps principal',(#424),#406,.F.) ;
#449=ADVANCED_FACE('Corps principal',(#448),#430,.T.) ;
#468=ADVANCED_FACE('Corps principal',(#467),#430,.T.) ;
#485=ADVANCED_FACE('Corps principal',(#484),#473,.F.) ;
#507=ADVANCED_FACE('Corps principal',(#506),#490,.F.) ;
#514=ADVANCED_FACE('Corps principal',(#513),#490,.F.) ;
#538=ADVANCED_FACE('Corps principal',(#537),#519,.T.) ;
#550=ADVANCED_FACE('Corps principal',(#549),#543,.F.) ;
#4=APPLICATION_PROTOCOL_DEFINITION('international standard','config_control_design',1994,#1) ;
#32=APPROVAL_DATE_TIME(#13,#21) ;
#551=MANIFOLD_SOLID_BREP('Corps principal',#51) ;
#11=CALENDAR_DATE(2018,3,6) ;
#30=CC_DESIGN_APPROVAL(#21,(#16,#6,#14)) ;
#18=CC_DESIGN_DATE_AND_TIME_ASSIGNMENT(#13,#17,(#16)) ;
#29=CC_DESIGN_DATE_AND_TIME_ASSIGNMENT(#13,#28,(#14)) ;
#17=DATE_TIME_ROLE('classification_date') ;
#28=DATE_TIME_ROLE('creation_date') ;
#27=CC_DESIGN_PERSON_AND_ORGANIZATION_ASSIGNMENT(#25,#26,(#16)) ;
#33=CC_DESIGN_PERSON_AND_ORGANIZATION_ASSIGNMENT(#25,#34,(#6)) ;
#35=CC_DESIGN_PERSON_AND_ORGANIZATION_ASSIGNMENT(#25,#36,(#6,#14)) ;
#37=CC_DESIGN_PERSON_AND_ORGANIZATION_ASSIGNMENT(#25,#38,(#5)) ;
#26=PERSON_AND_ORGANIZATION_ROLE('classification_officer') ;
#34=PERSON_AND_ORGANIZATION_ROLE('design_supplier') ;
#36=PERSON_AND_ORGANIZATION_ROLE('creator') ;
#38=PERSON_AND_ORGANIZATION_ROLE('design_owner') ;
#39=CC_DESIGN_SECURITY_CLASSIFICATION(#16,(#6)) ;
#69=CIRCLE('generated circle',#68,2.5) ;
#83=CIRCLE('generated circle',#82,2.5) ;
#134=CIRCLE('generated circle',#133,2.5) ;
#143=CIRCLE('generated circle',#142,2.5) ;
#152=CIRCLE('generated circle',#151,2.5) ;
#162=CIRCLE('generated circle',#161,2.5) ;
#244=CIRCLE('generated circle',#243,1.) ;
#265=CIRCLE('generated circle',#264,1.) ;
#362=CIRCLE('generated circle',#361,2.5) ;
#371=CIRCLE('generated circle',#370,2.5) ;
#417=CIRCLE('generated circle',#416,1.) ;
#477=CIRCLE('generated circle',#476,1.) ;
#553=SHAPE_REPRESENTATION_RELATIONSHIP(' ',' ',#49,#552) ;
#56=CYLINDRICAL_SURFACE('generated cylinder',#55,2.5) ;
#406=CYLINDRICAL_SURFACE('generated cylinder',#405,1.) ;
#473=CYLINDRICAL_SURFACE('generated cylinder',#472,1.) ;
#490=CYLINDRICAL_SURFACE('generated cylinder',#489,2.5) ;
#3=DESIGN_CONTEXT(' ',#1,'design') ;
#65=EDGE_CURVE('',#62,#64,#60,.F.) ;
#72=EDGE_CURVE('',#62,#71,#69,.T.) ;
#79=EDGE_CURVE('',#71,#78,#76,.F.) ;
#84=EDGE_CURVE('',#78,#64,#83,.F.) ;
#105=EDGE_CURVE('',#102,#104,#100,.T.) ;
#112=EDGE_CURVE('',#102,#111,#109,.T.) ;
#119=EDGE_CURVE('',#111,#118,#116,.T.) ;
#124=EDGE_CURVE('',#104,#118,#123,.T.) ;
#135=EDGE_CURVE('',#64,#78,#134,.T.) ;
#148=EDGE_CURVE('',#145,#147,#143,.T.) ;
#153=EDGE_CURVE('',#147,#145,#152,.T.) ;
#163=EDGE_CURVE('',#71,#62,#162,.T.) ;
#184=EDGE_CURVE('',#181,#183,#179,.T.) ;
#191=EDGE_CURVE('',#181,#190,#188,.T.) ;
#198=EDGE_CURVE('',#190,#197,#195,.T.) ;
#203=EDGE_CURVE('',#183,#197,#202,.T.) ;
#226=EDGE_CURVE('',#225,#102,#223,.F.) ;
#233=EDGE_CURVE('',#232,#225,#230,.F.) ;
#240=EDGE_CURVE('',#239,#232,#237,.F.) ;
#247=EDGE_CURVE('',#246,#239,#244,.F.) ;
#254=EDGE_CURVE('',#253,#246,#251,.F.) ;
#261=EDGE_CURVE('',#260,#253,#258,.T.) ;
#268=EDGE_CURVE('',#267,#260,#265,.F.) ;
#273=EDGE_CURVE('',#190,#267,#272,.T.) ;
#278=EDGE_CURVE('',#111,#181,#277,.T.) ;
#302=EDGE_CURVE('',#118,#183,#301,.T.) ;
#321=EDGE_CURVE('',#267,#320,#318,.T.) ;
#326=EDGE_CURVE('',#197,#320,#325,.T.) ;
#340=EDGE_CURVE('',#232,#339,#337,.T.) ;
#347=EDGE_CURVE('',#225,#346,#344,.T.) ;
#352=EDGE_CURVE('',#339,#346,#351,.F.) ;
#367=EDGE_CURVE('',#364,#366,#362,.T.) ;
#372=EDGE_CURVE('',#366,#364,#371,.T.) ;
#389=EDGE_CURVE('',#239,#388,#386,.T.) ;
#394=EDGE_CURVE('',#388,#339,#393,.F.) ;
#413=EDGE_CURVE('',#246,#412,#410,.T.) ;
#418=EDGE_CURVE('',#412,#388,#417,.F.) ;
#437=EDGE_CURVE('',#253,#436,#434,.T.) ;
#442=EDGE_CURVE('',#436,#412,#441,.F.) ;
#456=EDGE_CURVE('',#260,#455,#453,.T.) ;
#461=EDGE_CURVE('',#455,#436,#460,.T.) ;
#478=EDGE_CURVE('',#320,#455,#477,.F.) ;
#495=EDGE_CURVE('',#366,#145,#494,.F.) ;
#500=EDGE_CURVE('',#364,#147,#499,.F.) ;
#524=EDGE_CURVE('',#346,#104,#523,.F.) ;
#85=EDGE_LOOP('',(#86,#87,#88,#89)) ;
#125=EDGE_LOOP('',(#126,#127,#128,#129)) ;
#136=EDGE_LOOP('',(#137,#138)) ;
#154=EDGE_LOOP('',(#155,#156)) ;
#164=EDGE_LOOP('',(#165,#166,#167,#168)) ;
#204=EDGE_LOOP('',(#205,#206,#207,#208)) ;
#210=EDGE_LOOP('',(#211,#212)) ;
#279=EDGE_LOOP('',(#280,#281,#282,#283,#284,#285,#286,#287,#288,#289,#290)) ;
#303=EDGE_LOOP('',(#304,#305,#306,#307)) ;
#327=EDGE_LOOP('',(#328,#329,#330,#331)) ;
#353=EDGE_LOOP('',(#354,#355,#356,#357)) ;
#373=EDGE_LOOP('',(#374,#375)) ;
#395=EDGE_LOOP('',(#396,#397,#398,#399)) ;
#419=EDGE_LOOP('',(#420,#421,#422,#423)) ;
#443=EDGE_LOOP('',(#444,#445,#446,#447)) ;
#462=EDGE_LOOP('',(#463,#464,#465,#466)) ;
#479=EDGE_LOOP('',(#480,#481,#482,#483)) ;
#501=EDGE_LOOP('',(#502,#503,#504,#505)) ;
#508=EDGE_LOOP('',(#509,#510,#511,#512)) ;
#525=EDGE_LOOP('',(#526,#527,#528,#529,#530,#531,#532,#533,#534,#535,#536)) ;
#544=EDGE_LOOP('',(#545,#546,#547,#548)) ;
#90=FACE_OUTER_BOUND('',#85,.T.) ;
#130=FACE_OUTER_BOUND('',#125,.T.) ;
#169=FACE_OUTER_BOUND('',#164,.T.) ;
#209=FACE_OUTER_BOUND('',#204,.T.) ;
#291=FACE_OUTER_BOUND('',#279,.T.) ;
#308=FACE_OUTER_BOUND('',#303,.T.) ;
#332=FACE_OUTER_BOUND('',#327,.T.) ;
#358=FACE_OUTER_BOUND('',#353,.T.) ;
#400=FACE_OUTER_BOUND('',#395,.T.) ;
#424=FACE_OUTER_BOUND('',#419,.T.) ;
#448=FACE_OUTER_BOUND('',#443,.T.) ;
#467=FACE_OUTER_BOUND('',#462,.T.) ;
#484=FACE_OUTER_BOUND('',#479,.T.) ;
#506=FACE_OUTER_BOUND('',#501,.T.) ;
#513=FACE_OUTER_BOUND('',#508,.T.) ;
#537=FACE_OUTER_BOUND('',#525,.T.) ;
#549=FACE_OUTER_BOUND('',#544,.T.) ;
#45=UNCERTAINTY_MEASURE_WITH_UNIT(LENGTH_MEASURE(0.005),#41,'distance_accuracy_value','CONFUSED CURVE UNCERTAINTY') ;
#60=LINE('Line',#57,#59) ;
#76=LINE('Line',#73,#75) ;
#100=LINE('Line',#97,#99) ;
#109=LINE('Line',#106,#108) ;
#116=LINE('Line',#113,#115) ;
#123=LINE('Line',#120,#122) ;
#179=LINE('Line',#176,#178) ;
#188=LINE('Line',#185,#187) ;
#195=LINE('Line',#192,#194) ;
#202=LINE('Line',#199,#201) ;
#223=LINE('Line',#220,#222) ;
#230=LINE('Line',#227,#229) ;
#237=LINE('Line',#234,#236) ;
#251=LINE('Line',#248,#250) ;
#258=LINE('Line',#255,#257) ;
#272=LINE('Line',#269,#271) ;
#277=LINE('Line',#274,#276) ;
#301=LINE('Line',#298,#300) ;
#318=LINE('Line',#315,#317) ;
#325=LINE('Line',#322,#324) ;
#337=LINE('Line',#334,#336) ;
#344=LINE('Line',#341,#343) ;
#351=LINE('Line',#348,#350) ;
#386=LINE('Line',#383,#385) ;
#393=LINE('Line',#390,#392) ;
#410=LINE('Line',#407,#409) ;
#434=LINE('Line',#431,#433) ;
#441=LINE('Line',#438,#440) ;
#453=LINE('Line',#450,#452) ;
#460=LINE('Line',#457,#459) ;
#494=LINE('Line',#491,#493) ;
#499=LINE('Line',#496,#498) ;
#523=LINE('Line',#520,#522) ;
#2=MECHANICAL_CONTEXT(' ',#1,'mechanical') ;
#24=PERSONAL_ADDRESS(' ',' ',' ',' ',' ',' ',' ',' ',' ',' ',' ',' ',(#22),' ') ;
#96=PLANE('Plane',#95) ;
#175=PLANE('Plane',#174) ;
#219=PLANE('Plane',#218) ;
#297=PLANE('Plane',#296) ;
#314=PLANE('Plane',#313) ;
#382=PLANE('Plane',#381) ;
#430=PLANE('Plane',#429) ;
#519=PLANE('Plane',#518) ;
#543=PLANE('Plane',#542) ;
#43=PLANE_ANGLE_MEASURE_WITH_UNIT(PLANE_ANGLE_MEASURE(0.0174532925199),#42) ;
#7=PRODUCT_CATEGORY('part',$) ;
#9=PRODUCT_CATEGORY_RELATIONSHIP(' ',' ',#7,#8) ;
#6=PRODUCT_DEFINITION_FORMATION_WITH_SPECIFIED_SOURCE('',' ',#5,.NOT_KNOWN.) ;
#8=PRODUCT_RELATED_PRODUCT_CATEGORY('detail',$,(#5)) ;
#50=SHAPE_DEFINITION_REPRESENTATION(#40,#49) ;
#62=VERTEX_POINT('',#61) ;
#64=VERTEX_POINT('',#63) ;
#71=VERTEX_POINT('',#70) ;
#78=VERTEX_POINT('',#77) ;
#102=VERTEX_POINT('',#101) ;
#104=VERTEX_POINT('',#103) ;
#111=VERTEX_POINT('',#110) ;
#118=VERTEX_POINT('',#117) ;
#145=VERTEX_POINT('',#144) ;
#147=VERTEX_POINT('',#146) ;
#181=VERTEX_POINT('',#180) ;
#183=VERTEX_POINT('',#182) ;
#190=VERTEX_POINT('',#189) ;
#197=VERTEX_POINT('',#196) ;
#225=VERTEX_POINT('',#224) ;
#232=VERTEX_POINT('',#231) ;
#239=VERTEX_POINT('',#238) ;
#246=VERTEX_POINT('',#245) ;
#253=VERTEX_POINT('',#252) ;
#260=VERTEX_POINT('',#259) ;
#267=VERTEX_POINT('',#266) ;
#320=VERTEX_POINT('',#319) ;
#339=VERTEX_POINT('',#338) ;
#346=VERTEX_POINT('',#345) ;
#364=VERTEX_POINT('',#363) ;
#366=VERTEX_POINT('',#365) ;
#388=VERTEX_POINT('',#387) ;
#412=VERTEX_POINT('',#411) ;
#436=VERTEX_POINT('',#435) ;
#455=VERTEX_POINT('',#454) ;
#41=(LENGTH_UNIT()NAMED_UNIT(*)SI_UNIT(.MILLI.,.METRE.)) ;
#42=(NAMED_UNIT(*)PLANE_ANGLE_UNIT()SI_UNIT($,.RADIAN.)) ;
#44=(NAMED_UNIT(*)SI_UNIT($,.STERADIAN.)SOLID_ANGLE_UNIT()) ;
#46=(GEOMETRIC_REPRESENTATION_CONTEXT(3)GLOBAL_UNCERTAINTY_ASSIGNED_CONTEXT((#45))GLOBAL_UNIT_ASSIGNED_CONTEXT((#41,#42,#44))REPRESENTATION_CONTEXT(' ',' ')) ;
ENDSEC;
END-ISO-10303-21;
