ISO-10303-21;
HEADER;
FILE_DESCRIPTION(('STEP AP203'),'1');
FILE_NAME('20180608 Piece_en_U.stp','2018-06-08T08:30:16',(' '),(' '),'Spatial InterOp 3D',' ',' ');
FILE_SCHEMA(('CONFIG_CONTROL_DESIGN'));
ENDSEC;
DATA;
#1=DESIGN_CONTEXT('',#27,'design');
#2=APPLICATION_PROTOCOL_DEFINITION('INTERNATIONAL STANDARD','config_control_design',1994,#27);
#3=PRODUCT_CATEGORY_RELATIONSHIP('NONE','NONE',#28,#29);
#4=DATE_AND_TIME(#30,#31);
#5=DATE_TIME_ROLE('creation_date');
#6=DATE_TIME_ROLE('classification_date');
#7=PERSON_AND_ORGANIZATION_ROLE('creator');
#8=PERSON_AND_ORGANIZATION_ROLE('design_supplier');
#9=PERSON_AND_ORGANIZATION_ROLE('classification_officer');
#10=PERSON_AND_ORGANIZATION_ROLE('design_owner');
#11=APPROVAL_PERSON_ORGANIZATION(#32,#33,#34);
#12=APPROVAL_DATE_TIME(#4,#33);
#13=CC_DESIGN_APPROVAL(#33,(#35,#36,#37));
#14=CC_DESIGN_DATE_AND_TIME_ASSIGNMENT(#4,#5,(#37));
#15=CC_DESIGN_DATE_AND_TIME_ASSIGNMENT(#4,#6,(#35));
#16=CC_DESIGN_PERSON_AND_ORGANIZATION_ASSIGNMENT(#32,#10,(#38));
#17=CC_DESIGN_PERSON_AND_ORGANIZATION_ASSIGNMENT(#32,#7,(#37));
#18=CC_DESIGN_PERSON_AND_ORGANIZATION_ASSIGNMENT(#32,#7,(#36));
#19=CC_DESIGN_PERSON_AND_ORGANIZATION_ASSIGNMENT(#32,#8,(#36));
#20=CC_DESIGN_SECURITY_CLASSIFICATION(#35,(#36));
#21=CC_DESIGN_PERSON_AND_ORGANIZATION_ASSIGNMENT(#32,#9,(#35));
#22=SHAPE_DEFINITION_REPRESENTATION(#39,#40);
#23= (GEOMETRIC_REPRESENTATION_CONTEXT(3)GLOBAL_UNCERTAINTY_ASSIGNED_CONTEXT((#43))GLOBAL_UNIT_ASSIGNED_CONTEXT((#45,#46,#47))REPRESENTATION_CONTEXT('NONE','WORKSPACE'));
#27=APPLICATION_CONTEXT('CONFIGURATION CONTROLLED 3D DESIGNS OF MECHANICAL PARTS AND ASSEMBLIES');
#28=PRODUCT_CATEGORY('part','NONE');
#29=PRODUCT_RELATED_PRODUCT_CATEGORY('detail',' ',(#38));
#30=CALENDAR_DATE(2018,8,5);
#31=LOCAL_TIME(10,30,16.0,#49);
#32=PERSON_AND_ORGANIZATION(#50,#51);
#33=APPROVAL(#52,'SOLID MODEL');
#34=APPROVAL_ROLE('APPROVED');
#35=SECURITY_CLASSIFICATION('','',#53);
#36=PRODUCT_DEFINITION_FORMATION_WITH_SPECIFIED_SOURCE(' ','NONE',#38,.NOT_KNOWN.);
#37=PRODUCT_DEFINITION('NONE','NONE',#36,#1);
#38=PRODUCT('1','1','PART-1-DESC',(#54));
#39=PRODUCT_DEFINITION_SHAPE('NONE','NONE',#37);
#40=ADVANCED_BREP_SHAPE_REPRESENTATION('1',(#55,#56),#23);
#43=UNCERTAINTY_MEASURE_WITH_UNIT(LENGTH_MEASURE(1.0E-006),#45,'','');
#45= (CONVERSION_BASED_UNIT('MILLIMETRE',#59)LENGTH_UNIT()NAMED_UNIT(#62));
#46= (NAMED_UNIT(#64)PLANE_ANGLE_UNIT()SI_UNIT($,.RADIAN.));
#47= (NAMED_UNIT(#64)SOLID_ANGLE_UNIT()SI_UNIT($,.STERADIAN.));
#49=COORDINATED_UNIVERSAL_TIME_OFFSET(1,0,.AHEAD.);
#50=PERSON('','UNSPECIFIED',$,$,$,$);
#51=ORGANIZATION('UNSPECIFIED','UNSPECIFIED','UNSPECIFIED');
#52=APPROVAL_STATUS('approved');
#53=SECURITY_CLASSIFICATION_LEVEL('unclassified');
#54=MECHANICAL_CONTEXT('',#27,'mechanical');
#55=MANIFOLD_SOLID_BREP('1',#70);
#56=AXIS2_PLACEMENT_3D('',#71,#72,#73);
#59=LENGTH_MEASURE_WITH_UNIT(LENGTH_MEASURE(1.0),#74);
#62=DIMENSIONAL_EXPONENTS(1.0,0.0,0.0,0.0,0.0,0.0,0.0);
#64=DIMENSIONAL_EXPONENTS(0.0,0.0,0.0,0.0,0.0,0.0,0.0);
#70=CLOSED_SHELL('',(#75,#76,#77,#78,#79,#80,#81,#82,#83,#84,#85,#86));
#71=CARTESIAN_POINT('',(0.0,0.0,0.0));
#72=DIRECTION('',(0.0,0.0,1.0));
#73=DIRECTION('',(1.0,0.0,0.0));
#74= (NAMED_UNIT(#62)LENGTH_UNIT()SI_UNIT(.MILLI.,.METRE.));
#75=ADVANCED_FACE('',(#88,#89),#90,.F.);
#76=ADVANCED_FACE('',(#91,#92),#93,.F.);
#77=ADVANCED_FACE('',(#94),#95,.F.);
#78=ADVANCED_FACE('',(#96),#97,.F.);
#79=ADVANCED_FACE('',(#98),#99,.F.);
#80=ADVANCED_FACE('',(#100),#101,.F.);
#81=ADVANCED_FACE('',(#102),#103,.F.);
#82=ADVANCED_FACE('',(#104),#105,.F.);
#83=ADVANCED_FACE('',(#106,#107,#108),#109,.T.);
#84=ADVANCED_FACE('',(#110),#111,.F.);
#85=ADVANCED_FACE('',(#112),#113,.T.);
#86=ADVANCED_FACE('',(#114,#115,#116),#117,.T.);
#88=FACE_BOUND('',#118,.T.);
#89=FACE_BOUND('',#119,.T.);
#90=CYLINDRICAL_SURFACE('',#120,3.0);
#91=FACE_BOUND('',#121,.T.);
#92=FACE_BOUND('',#122,.T.);
#93=CYLINDRICAL_SURFACE('',#123,3.0);
#94=FACE_OUTER_BOUND('',#124,.T.);
#95=PLANE('',#125);
#96=FACE_OUTER_BOUND('',#126,.T.);
#97=PLANE('',#127);
#98=FACE_OUTER_BOUND('',#128,.T.);
#99=PLANE('',#129);
#100=FACE_OUTER_BOUND('',#130,.T.);
#101=PLANE('',#131);
#102=FACE_OUTER_BOUND('',#132,.T.);
#103=PLANE('',#133);
#104=FACE_OUTER_BOUND('',#134,.T.);
#105=PLANE('',#135);
#106=FACE_BOUND('',#136,.T.);
#107=FACE_BOUND('',#137,.T.);
#108=FACE_OUTER_BOUND('',#138,.T.);
#109=PLANE('',#139);
#110=FACE_OUTER_BOUND('',#140,.T.);
#111=CYLINDRICAL_SURFACE('',#141,15.0);
#112=FACE_OUTER_BOUND('',#142,.T.);
#113=CYLINDRICAL_SURFACE('',#143,40.0);
#114=FACE_BOUND('',#144,.T.);
#115=FACE_BOUND('',#145,.T.);
#116=FACE_OUTER_BOUND('',#146,.T.);
#117=PLANE('',#147);
#118=EDGE_LOOP('',(#148));
#119=EDGE_LOOP('',(#149));
#120=AXIS2_PLACEMENT_3D('',#150,#151,#152);
#121=EDGE_LOOP('',(#153));
#122=EDGE_LOOP('',(#154));
#123=AXIS2_PLACEMENT_3D('',#155,#156,#157);
#124=EDGE_LOOP('',(#158,#159,#160,#161));
#125=AXIS2_PLACEMENT_3D('',#162,#163,#164);
#126=EDGE_LOOP('',(#165,#166,#167,#168));
#127=AXIS2_PLACEMENT_3D('',#169,#170,#171);
#128=EDGE_LOOP('',(#172,#173,#174,#175));
#129=AXIS2_PLACEMENT_3D('',#176,#177,#178);
#130=EDGE_LOOP('',(#179,#180,#181,#182));
#131=AXIS2_PLACEMENT_3D('',#183,#184,#185);
#132=EDGE_LOOP('',(#186,#187,#188,#189));
#133=AXIS2_PLACEMENT_3D('',#190,#191,#192);
#134=EDGE_LOOP('',(#193,#194,#195,#196));
#135=AXIS2_PLACEMENT_3D('',#197,#198,#199);
#136=EDGE_LOOP('',(#200));
#137=EDGE_LOOP('',(#201));
#138=EDGE_LOOP('',(#202,#203,#204,#205,#206,#207,#208,#209));
#139=AXIS2_PLACEMENT_3D('',#210,#211,#212);
#140=EDGE_LOOP('',(#213,#214,#215,#216));
#141=AXIS2_PLACEMENT_3D('',#217,#218,#219);
#142=EDGE_LOOP('',(#220,#221,#222,#223));
#143=AXIS2_PLACEMENT_3D('',#224,#225,#226);
#144=EDGE_LOOP('',(#227));
#145=EDGE_LOOP('',(#228));
#146=EDGE_LOOP('',(#229,#230,#231,#232,#233,#234,#235,#236));
#147=AXIS2_PLACEMENT_3D('',#237,#238,#239);
#148=ORIENTED_EDGE('',*,*,#240,.F.);
#149=ORIENTED_EDGE('',*,*,#241,.F.);
#150=CARTESIAN_POINT('',(90.0,27.5,5.0));
#151=DIRECTION('',(0.0,0.0,1.0));
#152=DIRECTION('',(-1.0,0.0,0.0));
#153=ORIENTED_EDGE('',*,*,#242,.F.);
#154=ORIENTED_EDGE('',*,*,#243,.F.);
#155=CARTESIAN_POINT('',(90.0,-27.5,5.0));
#156=DIRECTION('',(0.0,0.0,1.0));
#157=DIRECTION('',(-1.0,0.0,0.0));
#158=ORIENTED_EDGE('',*,*,#244,.F.);
#159=ORIENTED_EDGE('',*,*,#245,.F.);
#160=ORIENTED_EDGE('',*,*,#246,.F.);
#161=ORIENTED_EDGE('',*,*,#247,.F.);
#162=CARTESIAN_POINT('',(50.0,-40.0,5.0));
#163=DIRECTION('',(0.0,1.0,0.0));
#164=DIRECTION('',(0.0,0.0,1.0));
#165=ORIENTED_EDGE('',*,*,#248,.T.);
#166=ORIENTED_EDGE('',*,*,#249,.F.);
#167=ORIENTED_EDGE('',*,*,#250,.F.);
#168=ORIENTED_EDGE('',*,*,#251,.F.);
#169=CARTESIAN_POINT('',(50.0,-15.0,5.0));
#170=DIRECTION('',(0.0,-1.0,0.0));
#171=DIRECTION('',(0.0,0.0,-1.0));
#172=ORIENTED_EDGE('',*,*,#246,.T.);
#173=ORIENTED_EDGE('',*,*,#252,.F.);
#174=ORIENTED_EDGE('',*,*,#248,.F.);
#175=ORIENTED_EDGE('',*,*,#253,.F.);
#176=CARTESIAN_POINT('',(100.0,-27.5,5.0));
#177=DIRECTION('',(-1.0,0.0,0.0));
#178=DIRECTION('',(0.0,0.0,1.0));
#179=ORIENTED_EDGE('',*,*,#254,.F.);
#180=ORIENTED_EDGE('',*,*,#255,.F.);
#181=ORIENTED_EDGE('',*,*,#256,.F.);
#182=ORIENTED_EDGE('',*,*,#257,.F.);
#183=CARTESIAN_POINT('',(50.0,15.0,5.0));
#184=DIRECTION('',(0.0,1.0,0.0));
#185=DIRECTION('',(0.0,0.0,1.0));
#186=ORIENTED_EDGE('',*,*,#258,.T.);
#187=ORIENTED_EDGE('',*,*,#259,.F.);
#188=ORIENTED_EDGE('',*,*,#260,.F.);
#189=ORIENTED_EDGE('',*,*,#261,.F.);
#190=CARTESIAN_POINT('',(50.0,40.0,5.0));
#191=DIRECTION('',(0.0,-1.0,0.0));
#192=DIRECTION('',(0.0,0.0,-1.0));
#193=ORIENTED_EDGE('',*,*,#256,.T.);
#194=ORIENTED_EDGE('',*,*,#262,.F.);
#195=ORIENTED_EDGE('',*,*,#258,.F.);
#196=ORIENTED_EDGE('',*,*,#263,.F.);
#197=CARTESIAN_POINT('',(100.0,27.5,5.0));
#198=DIRECTION('',(-1.0,0.0,0.0));
#199=DIRECTION('',(0.0,0.0,1.0));
#200=ORIENTED_EDGE('',*,*,#241,.T.);
#201=ORIENTED_EDGE('',*,*,#243,.T.);
#202=ORIENTED_EDGE('',*,*,#264,.T.);
#203=ORIENTED_EDGE('',*,*,#257,.T.);
#204=ORIENTED_EDGE('',*,*,#263,.T.);
#205=ORIENTED_EDGE('',*,*,#261,.T.);
#206=ORIENTED_EDGE('',*,*,#265,.T.);
#207=ORIENTED_EDGE('',*,*,#247,.T.);
#208=ORIENTED_EDGE('',*,*,#253,.T.);
#209=ORIENTED_EDGE('',*,*,#251,.T.);
#210=CARTESIAN_POINT('',(0.0,0.0,10.0));
#211=DIRECTION('',(0.0,0.0,1.0));
#212=DIRECTION('',(1.0,0.0,0.0));
#213=ORIENTED_EDGE('',*,*,#254,.T.);
#214=ORIENTED_EDGE('',*,*,#264,.F.);
#215=ORIENTED_EDGE('',*,*,#250,.T.);
#216=ORIENTED_EDGE('',*,*,#266,.F.);
#217=CARTESIAN_POINT('',(0.0,0.0,5.0));
#218=DIRECTION('',(0.0,0.0,1.0));
#219=DIRECTION('',(1.0,0.0,0.0));
#220=ORIENTED_EDGE('',*,*,#260,.T.);
#221=ORIENTED_EDGE('',*,*,#267,.F.);
#222=ORIENTED_EDGE('',*,*,#244,.T.);
#223=ORIENTED_EDGE('',*,*,#265,.F.);
#224=CARTESIAN_POINT('',(0.0,0.0,5.0));
#225=DIRECTION('',(0.0,0.0,1.0));
#226=DIRECTION('',(1.0,0.0,0.0));
#227=ORIENTED_EDGE('',*,*,#240,.T.);
#228=ORIENTED_EDGE('',*,*,#242,.T.);
#229=ORIENTED_EDGE('',*,*,#267,.T.);
#230=ORIENTED_EDGE('',*,*,#259,.T.);
#231=ORIENTED_EDGE('',*,*,#262,.T.);
#232=ORIENTED_EDGE('',*,*,#255,.T.);
#233=ORIENTED_EDGE('',*,*,#266,.T.);
#234=ORIENTED_EDGE('',*,*,#249,.T.);
#235=ORIENTED_EDGE('',*,*,#252,.T.);
#236=ORIENTED_EDGE('',*,*,#245,.T.);
#237=CARTESIAN_POINT('',(0.0,0.0,0.0));
#238=DIRECTION('',(0.0,0.0,-1.0));
#239=DIRECTION('',(-1.0,0.0,0.0));
#240=EDGE_CURVE('',#268,#268,#269,.T.);
#241=EDGE_CURVE('',#270,#270,#271,.T.);
#242=EDGE_CURVE('',#272,#272,#273,.T.);
#243=EDGE_CURVE('',#274,#274,#275,.T.);
#244=EDGE_CURVE('',#276,#277,#278,.T.);
#245=EDGE_CURVE('',#279,#276,#280,.T.);
#246=EDGE_CURVE('',#281,#279,#282,.T.);
#247=EDGE_CURVE('',#277,#281,#283,.T.);
#248=EDGE_CURVE('',#284,#285,#286,.T.);
#249=EDGE_CURVE('',#287,#285,#288,.T.);
#250=EDGE_CURVE('',#289,#287,#290,.T.);
#251=EDGE_CURVE('',#284,#289,#291,.T.);
#252=EDGE_CURVE('',#285,#279,#292,.T.);
#253=EDGE_CURVE('',#281,#284,#293,.T.);
#254=EDGE_CURVE('',#294,#295,#296,.T.);
#255=EDGE_CURVE('',#297,#294,#298,.T.);
#256=EDGE_CURVE('',#299,#297,#300,.T.);
#257=EDGE_CURVE('',#295,#299,#301,.T.);
#258=EDGE_CURVE('',#302,#303,#304,.T.);
#259=EDGE_CURVE('',#305,#303,#306,.T.);
#260=EDGE_CURVE('',#307,#305,#308,.T.);
#261=EDGE_CURVE('',#302,#307,#309,.T.);
#262=EDGE_CURVE('',#303,#297,#310,.T.);
#263=EDGE_CURVE('',#299,#302,#311,.T.);
#264=EDGE_CURVE('',#289,#295,#312,.T.);
#265=EDGE_CURVE('',#307,#277,#313,.T.);
#266=EDGE_CURVE('',#294,#287,#314,.T.);
#267=EDGE_CURVE('',#276,#305,#315,.T.);
#268=VERTEX_POINT('',#316);
#269=CIRCLE('',#317,3.0);
#270=VERTEX_POINT('',#318);
#271=CIRCLE('',#319,3.0);
#272=VERTEX_POINT('',#320);
#273=CIRCLE('',#321,3.0);
#274=VERTEX_POINT('',#322);
#275=CIRCLE('',#323,3.0);
#276=VERTEX_POINT('',#324);
#277=VERTEX_POINT('',#325);
#278=LINE('',#326,#327);
#279=VERTEX_POINT('',#328);
#280=LINE('',#329,#330);
#281=VERTEX_POINT('',#331);
#282=LINE('',#332,#333);
#283=LINE('',#334,#335);
#284=VERTEX_POINT('',#336);
#285=VERTEX_POINT('',#337);
#286=LINE('',#338,#339);
#287=VERTEX_POINT('',#340);
#288=LINE('',#341,#342);
#289=VERTEX_POINT('',#343);
#290=LINE('',#344,#345);
#291=LINE('',#346,#347);
#292=LINE('',#348,#349);
#293=LINE('',#350,#351);
#294=VERTEX_POINT('',#352);
#295=VERTEX_POINT('',#353);
#296=LINE('',#354,#355);
#297=VERTEX_POINT('',#356);
#298=LINE('',#357,#358);
#299=VERTEX_POINT('',#359);
#300=LINE('',#360,#361);
#301=LINE('',#362,#363);
#302=VERTEX_POINT('',#364);
#303=VERTEX_POINT('',#365);
#304=LINE('',#366,#367);
#305=VERTEX_POINT('',#368);
#306=LINE('',#369,#370);
#307=VERTEX_POINT('',#371);
#308=LINE('',#372,#373);
#309=LINE('',#374,#375);
#310=LINE('',#376,#377);
#311=LINE('',#378,#379);
#312=CIRCLE('',#380,15.0);
#313=CIRCLE('',#381,40.0);
#314=CIRCLE('',#382,15.0);
#315=CIRCLE('',#383,40.0);
#316=CARTESIAN_POINT('',(93.0,27.5,0.0));
#317=AXIS2_PLACEMENT_3D('',#384,#385,#386);
#318=CARTESIAN_POINT('',(93.0,27.5,10.0));
#319=AXIS2_PLACEMENT_3D('',#387,#388,#389);
#320=CARTESIAN_POINT('',(93.0,-27.5,0.0));
#321=AXIS2_PLACEMENT_3D('',#390,#391,#392);
#322=CARTESIAN_POINT('',(93.0,-27.5,10.0));
#323=AXIS2_PLACEMENT_3D('',#393,#394,#395);
#324=CARTESIAN_POINT('',(0.0,-40.0,0.0));
#325=CARTESIAN_POINT('',(0.0,-40.0,10.0));
#326=CARTESIAN_POINT('',(0.0,-40.0,5.0));
#327=VECTOR('',#396,1.0);
#328=CARTESIAN_POINT('',(100.0,-40.0,0.0));
#329=CARTESIAN_POINT('',(50.0,-40.0,0.0));
#330=VECTOR('',#397,1.0);
#331=CARTESIAN_POINT('',(100.0,-40.0,10.0));
#332=CARTESIAN_POINT('',(100.0,-40.0,5.0));
#333=VECTOR('',#398,1.0);
#334=CARTESIAN_POINT('',(50.0,-40.0,10.0));
#335=VECTOR('',#399,1.0);
#336=CARTESIAN_POINT('',(100.0,-15.0,10.0));
#337=CARTESIAN_POINT('',(100.0,-15.0,0.0));
#338=CARTESIAN_POINT('',(100.0,-15.0,5.0));
#339=VECTOR('',#400,1.0);
#340=CARTESIAN_POINT('',(0.0,-15.0,0.0));
#341=CARTESIAN_POINT('',(50.0,-15.0,0.0));
#342=VECTOR('',#401,1.0);
#343=CARTESIAN_POINT('',(0.0,-15.0,10.0));
#344=CARTESIAN_POINT('',(0.0,-15.0,5.0));
#345=VECTOR('',#402,1.0);
#346=CARTESIAN_POINT('',(50.0,-15.0,10.0));
#347=VECTOR('',#403,1.0);
#348=CARTESIAN_POINT('',(100.0,-27.5,0.0));
#349=VECTOR('',#404,1.0);
#350=CARTESIAN_POINT('',(100.0,-27.5,10.0));
#351=VECTOR('',#405,1.0);
#352=CARTESIAN_POINT('',(0.0,15.0,0.0));
#353=CARTESIAN_POINT('',(0.0,15.0,10.0));
#354=CARTESIAN_POINT('',(0.0,15.0,5.0));
#355=VECTOR('',#406,1.0);
#356=CARTESIAN_POINT('',(100.0,15.0,0.0));
#357=CARTESIAN_POINT('',(50.0,15.0,0.0));
#358=VECTOR('',#407,1.0);
#359=CARTESIAN_POINT('',(100.0,15.0,10.0));
#360=CARTESIAN_POINT('',(100.0,15.0,5.0));
#361=VECTOR('',#408,1.0);
#362=CARTESIAN_POINT('',(50.0,15.0,10.0));
#363=VECTOR('',#409,1.0);
#364=CARTESIAN_POINT('',(100.0,40.0,10.0));
#365=CARTESIAN_POINT('',(100.0,40.0,0.0));
#366=CARTESIAN_POINT('',(100.0,40.0,5.0));
#367=VECTOR('',#410,1.0);
#368=CARTESIAN_POINT('',(0.0,40.0,0.0));
#369=CARTESIAN_POINT('',(50.0,40.0,0.0));
#370=VECTOR('',#411,1.0);
#371=CARTESIAN_POINT('',(0.0,40.0,10.0));
#372=CARTESIAN_POINT('',(0.0,40.0,5.0));
#373=VECTOR('',#412,1.0);
#374=CARTESIAN_POINT('',(50.0,40.0,10.0));
#375=VECTOR('',#413,1.0);
#376=CARTESIAN_POINT('',(100.0,27.5,0.0));
#377=VECTOR('',#414,1.0);
#378=CARTESIAN_POINT('',(100.0,27.5,10.0));
#379=VECTOR('',#415,1.0);
#380=AXIS2_PLACEMENT_3D('',#416,#417,#418);
#381=AXIS2_PLACEMENT_3D('',#419,#420,#421);
#382=AXIS2_PLACEMENT_3D('',#422,#423,#424);
#383=AXIS2_PLACEMENT_3D('',#425,#426,#427);
#384=CARTESIAN_POINT('',(90.0,27.5,0.0));
#385=DIRECTION('',(0.0,-0.0,1.0));
#386=DIRECTION('',(-1.0,0.0,0.0));
#387=CARTESIAN_POINT('',(90.0,27.5,10.0));
#388=DIRECTION('',(-0.0,0.0,-1.0));
#389=DIRECTION('',(-1.0,0.0,0.0));
#390=CARTESIAN_POINT('',(90.0,-27.5,0.0));
#391=DIRECTION('',(0.0,-0.0,1.0));
#392=DIRECTION('',(-1.0,0.0,0.0));
#393=CARTESIAN_POINT('',(90.0,-27.5,10.0));
#394=DIRECTION('',(-0.0,0.0,-1.0));
#395=DIRECTION('',(-1.0,0.0,0.0));
#396=DIRECTION('',(0.0,0.0,1.0));
#397=DIRECTION('',(-1.0,0.0,0.0));
#398=DIRECTION('',(0.0,0.0,-1.0));
#399=DIRECTION('',(1.0,0.0,0.0));
#400=DIRECTION('',(0.0,0.0,-1.0));
#401=DIRECTION('',(1.0,0.0,0.0));
#402=DIRECTION('',(-0.0,0.0,-1.0));
#403=DIRECTION('',(-1.0,0.0,0.0));
#404=DIRECTION('',(0.0,-1.0,0.0));
#405=DIRECTION('',(0.0,1.0,0.0));
#406=DIRECTION('',(0.0,0.0,1.0));
#407=DIRECTION('',(-1.0,0.0,0.0));
#408=DIRECTION('',(0.0,0.0,-1.0));
#409=DIRECTION('',(1.0,0.0,0.0));
#410=DIRECTION('',(0.0,0.0,-1.0));
#411=DIRECTION('',(1.0,0.0,0.0));
#412=DIRECTION('',(-0.0,-0.0,-1.0));
#413=DIRECTION('',(-1.0,0.0,0.0));
#414=DIRECTION('',(0.0,-1.0,0.0));
#415=DIRECTION('',(0.0,1.0,0.0));
#416=CARTESIAN_POINT('',(0.0,0.0,10.0));
#417=DIRECTION('',(0.0,0.0,-1.0));
#418=DIRECTION('',(1.0,0.0,0.0));
#419=CARTESIAN_POINT('',(0.0,0.0,10.0));
#420=DIRECTION('',(0.0,0.0,1.0));
#421=DIRECTION('',(1.0,0.0,0.0));
#422=CARTESIAN_POINT('',(0.0,0.0,0.0));
#423=DIRECTION('',(0.0,-0.0,1.0));
#424=DIRECTION('',(1.0,0.0,0.0));
#425=CARTESIAN_POINT('',(0.0,0.0,0.0));
#426=DIRECTION('',(0.0,0.0,-1.0));
#427=DIRECTION('',(1.0,0.0,0.0));
ENDSEC;
END-ISO-10303-21;
